Radiohead - No Surprises Chords & Tabs

 

No Surprises Chords & Tabs

Radiohead Chords & Tabs

Version: 4 Type: Tab 0 ratings
1 star 2 stars 3 stars 4 stars 5 stars
comments

No Surprises Tab

   
NO SURPRISES
As recorded by Radiohead
(From the 1997 Album OK COMPUTER)


Transcribed by Victor Ochoa

 Words and Music by Colin Greenwood, Jonathan Greenwood, Edward O'Brien,
Philip Selway & Thomas Yorke

 


 Intro
  Q=77
  F                         Bbm6      F                         Bbm6
 4/4
  Gtr I
|-2-------2-------|-2-------------0-|-2-------2-------|-2-------------0-|
|-----3-------3---|-----3-------3---|-----3-------3---|-----3-------3---|
|---2---2---2---2-|---2---2-0-3-----|---2---2---2---2-|---2---2-0-3-----|
|-----------------|-----------------|-----------------|-----------------|
|-----------------|-----------------|-----------------|-----------------|
|-----------------|-----------------|-----------------|-----------------|


  F                               Bbm   Bbm/Bbm6
  Gtrs II, III
|-2---0-0-0-2---0-0-0-|-2---0-0-0-3-3---2---0-0-0-|
|-3---3-3-3-3---3-3-3-|-3---3-3-3-3-3---3---3-3-3-|
|-2-2-2-2-2-2-2-2-2-2-|-2-2-2-2-2-0-0-x-0-x-0-0-0-|
|-0-0-0-0-0-0-0-0-0-0-|-0-0-0-0-0-x-x-x-x-x-x-x-x-|
|---------------------|-----------1-1-x-1-x-1-1-1-|
|---------------------|---------------------------|
|
| Gtr I
|-2---------2---------|-2---------------------0---|
|-----3---------3-----|-----3-------------3-------|
|---2---2-----2---2---|---2---2---0---3-----------|
|---------------------|---------------------------|
|---------------------|---------------------------|
|---------------------|---------------------------|


  F                               Bbm   Bbm Bbm6
|-2---0-0-0-2---0-0-0-|-2---0-0-0-3-3---2---0-0-0--||
|-3---3-3-3-3---3-3-3-|-3---3-3-3-3-3---3---3-3-3--||
|-2-2-2-2-2-2-2-2-2-2-|-2-2-2-2-2-0-0-x-0-x-0-0-0--||
|-0-0-0-0-0-0-0-0-0-0-|-0-0-0-0-0-x-x-x-x-x-x-x-x--||
|---------------------|-----------1-1-x-1-x-1-1-1--||
|---------------------|----------------------------||
|
|-2---------2---------|-2---------------------0----||
|-----3---------3-----|-----3-------------3--------||
|---2---2-----2---2---|---2---2---0---3------------||
|---------------------|----------------------------||
|---------------------|----------------------------||
|---------------------|----------------------------||


 1st Verse
  F
  Gtr II
|-2---0-0-0-2---0-0-0-|-2---0-0-0-2-----0-0-0-0-|
|-3---3-3-3-3---3-3-3-|-3---3-3-3-3-----3-3-3-3-|
|-2-2-2-2-2-2-2-2-2-2-|-2-2-2-2-2-2-2---2-2-2-2-|
|-0-0-0-0-0-0-0-0-0-0-|-0-0-0-0-0-0-0---0-0-0-0-|
|---------------------|-------------------------|
|---------------------|-------------------------|
|
| Gtr III
|-2---0-0-0-2---0-0-0-|-2---0-0-0-0-0-0-0---0-0-|
|-3---3-3-3-3---3-3-3-|-3---3-3-3-3-3-3-3---3-3-|
|-2-2-2-2-2-2-2-2-2-2-|-2-2-2-2-2-2-2-2-2---2-2-|
|-0-0-0-0-0-0-0-0-0-0-|-0-0-0-0-0-0-0-0-0---0-0-|
|---------------------|-------------------------|
|---------------------|-------------------------|
|
| Gtr I
|-2---------2---------|-2---------2-------------|
|-----3---------3-----|-----3-----------3-------|
|---2---2-----2---2---|---2---2-----2-------2---|
|---------------------|-------------------------|
|---------------------|-------------------------|
|---------------------|-------------------------|


  Dm+5
|-2-----0-0-0-2---0-0-0-0-|-2---0-0-0-2---0-0-0-|
|-3-----3-3-3-3---3-3-3-3-|-3---3-3-3-3---3-3-3-|
|-0-0---0-0-0-0-0-0-0-0-0-|-0-0-0-0-0-0-0-0-0-0-|
|-x-x---x-x-x-x-x-x-x-x-x-|-x-x-x-x-x-x-x-x-x-x-|
|-2-2---2-2-2-2-2-2-2-2-2-|-2-2-2-2-2-2-2-2-2-2-|
|-------------------------|---------------------|
|
|-2-0-0-0-0-0-2---0---0-0-|-2---0-0-0-2---0-0-0-|
|-3-3-3-3-3-3-3---3---3-3-|-3---3-3-3-3---3-3-3-|
|-0-0-0-0-0-0-0-0-0---0-0-|-0-0-0-0-0-0-0-0-0-0-|
|-x-x-x-x-x-x-x-x-x---x-x-|-x-x-x-x-x-x-x-x-x-x-|
|-2-2-2-2-2-2-2-2-2---2-2-|-2-2-2-2-2-2-2-2-2-2-|
|-------------------------|---------------------|
|
|-2-----------2-----------|-2---------2---------|
|-------3---------3-------|-----3---------3-----|
|---0-----0-----0-----0---|---0---0-----0---0---|
|-------------------------|---------------------|
|-------------------------|---------------------|
|-------------------------|---------------------|


  Gm                    C
|-----0-0-0---0-0---0-|-----0-0-0-----0--0--0-0-0-|
|-----0-0-0---0-0---0-|-----2-2-2-----2--2--2-3-2-|
|-----0-0-0---0-0---0-|-2---2-2-2-2---2--2--2-2-2-|
|-2---2-2-2-2-2-2---2-|-2---2-2-2-2---2--2--2-2-2-|
|-2---2-2-2-2-2-2---2-|-0---------0---------------|
|-0---------0---------|---------------------------|
|
|-0---0-0-0-0---0-0-0-|-0---0-0-0-0---0--0------0-|
|-0---0-0-0-0---0-0-0-|-2---2-2-2-3---2--2------3-|
|-0---0-0-0-0---0-0-0-|-2-2-2-2-2-2---2--2----2-2-|
|-2-2-2-2-2-2-2-2-2-2-|-2-2-2-2-2-2---2--2----0-0-|
|-2-2-2-2-2-2-2-2-2-2-|-0-0-------0---------------|
|-0-0-------0-0-------|---------------------------|
|
|-3---------3---------|---------------------------|
|-----3---------3-----|-3-2-----------------------|
|---4---4-----4---4---|-----2---------2-(2)---0---|
|---------------------|-------2---2h4-------------|
|---------------------|---------------------------|
|---------------------|---------------------------|


  Fsus2                                 Bbm   Bbm/Bbm6
|-------0-------0---0---0-|---0---0---0-3-3---2---0-0-0----||
|-------3-------3---3---3-|---3---3---3-3-3---3---3-3-3----||
|-----2-2-----2-2-2-2-2-2-|-2-2-2-2-2-2-0-0-x-0-x-0-0-0----||
|-----0-0-----0-0-0-0-0-0-|-0-0-0-0-0-0-x-x-x-x-x-x-x-x----||
|-------------------------|-------------1-1-x-1-x-1-1-1----||
|-------------------------|--------------------------------||
|
|---0---0---0---0---0---0-|---0---0---0-3-3---2---0-0-0----||
|---3---3---3---3---3---3-|---3---3---3-3-3---3---3-3-3----||
|-2-2-2-2-2-2-2-2-2-2-2-2-|-2-2-2-2-2-2-0-0-x-0-x-0-0-0----||
|-0-0-0-0-0-0-0-0-0-0-0-0-|-0-0-0-0-0-0-x-x-x-x-x-x-x-x----||
|-------------------------|-------------1-1-x-1-x-1-1-1----||
|-------------------------|--------------------------------||
|
|-2-----------2-----------|-2-----------------------0------||
|-------3-----------3-----|-------3-------------3----------||
|-----2---2-------2---2---|-----2---2---0---3--------------||
|-------------------------|--------------------------------||
|-------------------------|--------------------------------||
|-------------------------|--------------------------------||


 2nd Verse
  Fsus2
|---0---0-------0---0-----|---0---0-------0---0---0-|
|---3---3-------3---3-----|---3---3-------3---3---3-|
|-2-2-2-2-----2-2-2-2-----|-2-2-2-2-----2-2-2-2-2-2-|
|-0-0-0-0-----0-0-0-0-----|-0-0-0-0-----0-0-0-0-0-0-|
|-------------------------|-------------------------|
|-------------------------|-------------------------|
|
|---0---0---0---0---0---0-|---0---0---0---0---0---0-|
|---3---3---3---3---3---3-|---3---3---3---3---3---3-|
|-2-2-2-2-2-2-2-2-2-2-2-2-|-2-2-2-2-2-2-2-2-2-2-2-2-|
|-0-0-0-0-0-0-0-0-0-0-0-0-|-0-0-0-0-0-0-0-0-0-0-0-0-|
|-------------------------|-------------------------|
|-------------------------|-------------------------|
|
|-2-----------2-----------|-2-----------2-----------|
|-------3-----------3-----|-------3-----------3-----|
|-----2---2-------2---2---|-----2---2-------2---2---|
|-------------------------|-------------------------|
|-------------------------|-------------------------|
|-------------------------|-------------------------|


  Dmadd11+5
|---0---0---0---0---0---0-|---0---0---0---0---0---0----|
|---3---3---3---3---3---3-|---3---3---3---3---3---3----|
|-0-0-0-0-0-0-0-0-0-0-0-0-|-0-0-0-0-0-0-0-0-0-0-0-0----|
|-x-x-x-x-x-x-x-x-x-x-x-x-|-x-x-x-x-x-x-x-x-x-x-x-x----|
|-2-2-2-2-2-2-2-2-2-2-2-2-|-2-2-2-2-2-2-2-2-2-2-2-2----|
|-------------------------|----------------------------|
|
|---0---0---0---0---0---0-|---0---0-------0---0---0----|
|---3---3---3---3---3---3-|---3---3-------3---3---3----|
|-0-0-0-0-0-0-0-0-0-0-0-0-|-0-0-0-0-----0-0-0-0-0-0----|
|-x-x-x-x-x-x-x-x-x-x-x-x-|-x-x-x-x-----x-x-x-x-x-x----|
|-2-2-2-2-2-2-2-2-2-2-2-2-|-2-2-2-2-----2-2-2-2-2-2----|
|-------------------------|----------------------------|
|
|-2-----------2-----------|-2-----------2--------------|
|-------3-----------3-----|-------3-----------3--------|
|-----0---0-------0---0---|-----0---0-------0---0------|
|-------------------------|----------------------------|
|-------------------------|----------------------------|
|-------------------------|----------------------------|


  Gm                    C         CsusC
|-----0-0-0-0---0-----|-----0-0-0-0------0--0-0-|
|-----0-0-0-0---0-----|-----2-2-2-3------2--2-2-|
|-----0-0-0-0---0-----|-2---2-2-2-2---2--2--2-2-|
|-2---2-2-2-2-2-2-----|-2---2-2-2-2---2--2--2-2-|
|-2---2-2-2-2-2-2-----|-0---------0---0---------|
|-0---------0-0-------|-------------------------|
|
|---0-0-0-0---0-0-0-0-|-0---0-0-0-0---0--0----0-|
|---0-0-0-0---0-0-0-0-|-2---2-2-2-3---2--2----3-|
|---0-0-0-0---0-0-0-0-|-2-2-2-2-2-2---2--2--2-2-|
|-2-2-2-2-2-2-2-2-2-2-|-2-2-2-2-2-2---2--2--0-0-|
|-2-2-2-2-2-2-2-2-2-2-|-0-0-------0-------------|
|-0---------0---------|-------------------------|
|
|-3---------3---------|-------------------------|
|-----3---------3-----|-3-2---------------------|
|---4---4-----4---4---|-----2---------2-(2)-0---|
|---------------------|-------2---2h4-----------|
|---------------------|-------------------------|
|---------------------|-------------------------|


  Fsus2                                 Bbm   Bbm/Bbm6
|---0---0---0---0---0---0-|---0---0---0-3-3---2---0-0-0-||
|---3---3---3---3---3---3-|---3---3---3-3-3---3---3-3-3-||
|-2-2-2-2-2-2-2-2-2-2-2-2-|-2-2-2-2-2-2-0-0-x-0-x-0-0-0-||
|-0-0-0-0-0-0-0-0-0-0-0-0-|-0-0-0-0-0-0-x-x-x-x-x-x-x-x-||
|-------------------------|-------------1-1-x-1-x-1-1-1-||
|-------------------------|-----------------------------||
|
|---0---0---0---0---0---0-|---0---0---0-3-3---2---0-0-0-||
|---3---3---3---3---3---3-|---3---3---3-3-3---3---3-3-3-||
|-2-2-2-2-2-2-2-2-2-2-2-2-|-2-2-2-2-2-2-0-0-x-0-x-0-0-0-||
|-0-0-0-0-0-0-0-0-0-0-0-0-|-0-0-0-0-0-0-x-x-x-x-x-x-x-x-||
|-------------------------|-------------1-1-x-1-x-1-1-1-||
|-------------------------|-----------------------------||
|
|-2-----------2-----------|-2-----------------------0---||
|-------3-----------3-----|-------3-------------3-------||
|-----2---2-------2---2---|-----2---2---0---3-----------||
|-------------------------|-----------------------------||
|-------------------------|-----------------------------||
|-------------------------|-----------------------------||


 1st Chorus
  Fsus2
  Gtrs II, III
|---0---0---0---0---0---0-|---0---0---0---0---0---0-|
|---3---3---3---3---3---3-|---3---3---3---3---3---3-|
|-2-2-2-2-2-2-2-2-2-2-2-2-|-2-2-2-2-2-2-2-2-2-2-2-2-|
|-0-0-0-0-0-0-0-0-0-0-0-0-|-0-0-0-0-0-0-0-0-0-0-0-0-|
|-------------------------|-------------------------|
|-------------------------|-------------------------|
|
| Gtr I
|-2-----------2-----------|-2-----------2-----------|
|-------3-----------3-----|-------3-----------3-----|
|-----2---2-------2---2---|-----2---2-------2---2---|
|-------------------------|-------------------------|
|-------------------------|-------------------------|
|-------------------------|-------------------------|


  Dmadd11+5
|---0---0---0---0---0---0-|---0---0---0---0---0---0----|
|---3---3---3---3---3---3-|---3---3---3---3---3---3----|
|-0-0-0-0-0-0-0-0-0-0-0-0-|-0-0-0-0-0-0-0-0-0-0-0-0----|
|-x-x-x-x-x-x-x-x-x-x-x-x-|-x-x-x-x-x-x-x-x-x-x-x-x----|
|-2-2-2-2-2-2-2-2-2-2-2-2-|-2-2-2-2-2-2-2-2-2-2-2-2----|
|-------------------------|----------------------------|
|
|-2-----------2-----------|-2-----------2--------------|
|-------3-----------3-----|-------3-----------3--------|
|-----0---0-------0---0---|-----0---0-------0---0------|
|-------------------------|----------------------------|
|-------------------------|----------------------------|
|-------------------------|----------------------------|


  Gm              C                               Gm              C
  Gtr II
|-----0-0-0-0---0-0-|-(0)-0---0---0---0-0---0-0-|-----0-0-0-0---0-0--|
|-----0-0-0-0---0-2-|-(2)-2---2---2---2-2---2-2-|-----0-0-0-0---0-2--|
|-----0-0-0-0---0-2-|-(2)-2-2-2---2-2-2-2-2-2-2-|-----0-0-0-0---0-2--|
|-2---2-2-2-2-2-2-2-|-(2)-2-2-2---2-2-2-2-2-2-2-|-2---2-2-2-2-2-2-2--|
|-2---2-2-2-2-2-2-0-|-(0)---0-------0-----0-----|-2---2-2-2-2-2-2-0--|
|-0---------0-0-----|---------------------------|-0---------0-0------|
|
| Gtr III
|-----0-0-0---0-0-0-|-(0)-0---0---0---0-0---0-0-|---0-0-0-0---0-0-0--|
|-----0-0-0---0-0-2-|-(2)-2---2---2---2-2---2-2-|---0-0-0-0---0-0-2--|
|-----0-0-0---0-0-2-|-(2)-2-2-2---2-2-2-2-2-2-2-|---0-0-0-0---0-0-2--|
|-2---2-2-2-2-2-2-2-|-(2)-2-2-2---2-2-2-2-2-2-2-|-2-2-2-2-2-2-2-2-2--|
|-2---2-2-2-2-2-2-0-|-(0)---0-------0-----0-----|-2-2-2-2-2-2-2-2-0--|
|-0---------0-------|---------------------------|-0---------0--------|
|
| Gtr I
|-------------------|---------------------------|--------------------|
|-------------------|---------------------------|--------------------|
|-4-2-2-0---0-2-2-0-|-(0)-----------0---2-0-----|-4-2-2-0---0-2-2-0--|
|-------------4-4-2-|-(2)-----2-2h4-----------0-|-------------4-4-2--|
|-------------------|---------------------------|--------------------|
|-------------------|---------------------------|--------------------|


  C                               Gm                C
|-(0)-0---0---0---0-0-0---0-0-0-|---0-0-0-0-0-----0-0-|-(0)-0---0---0---0-0---||
|-(2)-2---2---2---2-2-2---2-2-2-|---0-0-0-0-0-----0-2-|-(2)-2---2---2---2-2---||
|-(2)-2-2-2---2-2-2-2-2-2-2-2-2-|---0-0-0-0-0-----0-2-|-(2)-2-2-2-2-2-2-2-2---||
|-(2)-2-2-2---2-2-2-2-2-2-2-2-2-|-2-2-2-2-2-2---2-2-2-|-(2)-2-2-2-2-2-2-2-2---||
|-(0)---0-------0-------0-------|-2-2-2-2-2-2---2-2-0-|-(0)---0---0---0-------||
|-------------------------------|-0---------0---0-----|-----------------------||
|
|-(0)-0---0---0---0-0-0---0-0-0-|---0-0-0-0-0-0-0-0-0-|-(0)-0---0---0---0-0---||
|-(2)-2---2---2---2-2-2---2-2-2-|---0-0-0-0-0-0-0-0-2-|-(2)-2---2---2---2-2---||
|-(2)-2-2-2---2-2-2-2-2-2-2-2-2-|---0-0-0-0-0-0-0-0-2-|-(2)-2-2-2-2-2-2-2-2---||
|-(2)-2-2-2---2-2-2-2-2-2-2-2-2-|-2-2-2-2-2-2-2-2-2-2-|-(2)-2-2-2-2-2-2-2-2---||
|-(0)---0-------0-------0-------|-2-2-2-2-2-2-2-2-2-0-|-(0)---0---0---0-------||
|-------------------------------|-0-------------------|-----------------------||
|
|-------------------------------|---------------------|-----------------------||
|---------------3-------2-------|---------------------|-----------------------||
|-(0)---------------------------|-4-2-2-0---0---2-2-0-|-(0)-----------0-2-0---||
|-(2)---2-2-2-------2-------2---|---------------4-4-2-|-(2)-----2-2h4-------0-||
|-------------------------------|---------------------|-----------------------||
|-------------------------------|---------------------|-----------------------||

[ Tab from: http://www.guitartabs.cc/tabs/r/radiohead/no_surprises_tab_ver_4.html ]
 Interlude
  F                         Bbm6      F                         Bbm6
  Gtrs I, II, III
|-2-------2-------|-2-------------0-|-2-------2-------|-2-------------0-||
|-----3-------3---|-----3-------3---|-----3-------3---|-----3-------3---||
|---2---2---2---2-|---2---2-0-3-----|---2---2---2---2-|---2---2-0-3-----||
|-----------------|-----------------|-----------------|-----------------||
|-----------------|-----------------|-----------------|-----------------||
|-----------------|-----------------|-----------------|-----------------||


 2nd Chorus
  F                         F/E       Dm+5                          Dm+5/C
|-2-------2-------|-2-------2-------|-2-------2-------|-2-------2-------|
|-----3-------3---|-----3-------3---|-----3-------3---|-----3-------3---|
|---2---2---2---2-|---2---2---2---2-|---0---0---0---0-|---0---0---0---0-|
|-----------------|-----------------|-----------------|-----------------|
|-----------------|-----------------|-----------------|-----------------|
|-----------------|-----------------|-----------------|-----------------|


  Gm              C                               Gm              C
  Gtr II
|-----0-0-0-0---0-0-|-(0)-0---0---0---0-0---0-0-|-----0-0-0-0---0-0--|
|-----0-0-0-0---0-2-|-(2)-2---2---2---2-2---2-2-|-----0-0-0-0---0-2--|
|-----0-0-0-0---0-2-|-(2)-2-2-2---2-2-2-2-2-2-2-|-----0-0-0-0---0-2--|
|-2---2-2-2-2-2-2-2-|-(2)-2-2-2---2-2-2-2-2-2-2-|-2---2-2-2-2-2-2-2--|
|-2---2-2-2-2-2-2-0-|-(0)---0-------0-----0-----|-2---2-2-2-2-2-2-0--|
|-0---------0-0-----|---------------------------|-0---------0-0------|
|
| Gtr III
|---0-0-0-0---0-0-0-|-(0)-0---0---0---0-0---0-0-|---0-0-0-0---0-0-0--|
|---0-0-0-0---0-0-2-|-(2)-2---2---2---2-2---2-2-|---0-0-0-0---0-0-2--|
|---0-0-0-0---0-0-2-|-(2)-2-2-2---2-2-2-2-2-2-2-|---0-0-0-0---0-0-2--|
|-2-2-2-2-2-2-2-2-2-|-(2)-2-2-2---2-2-2-2-2-2-2-|-2-2-2-2-2-2-2-2-2--|
|-2-2-2-2-2-2-2-2-0-|-(0)---0-------0-----0-----|-2-2-2-2-2-2-2-2-0--|
|-0---------0-------|---------------------------|-0---------0--------|
|
| Gtr I
|-------------------|---------------------------|--------------------|
|-------------------|---------------3-----2-----|--------------------|
|-4-2-2-0---0-2-2-0-|-(0)-----------------------|-4-2-2-0---0-2-2-0--|
|-------------4-4-2-|-(2)---2-2-2-------2-----2-|-------------4-4-2--|
|-------------------|---------------------------|--------------------|
|-------------------|---------------------------|--------------------|


  C                           Gm                C
|-(0)-0---0---0---0-0---0-0-|-------0-0-0-0---0-0-|
|-(2)-2---2---2---2-2---2-2-|-------0-0-0-0---0-2-|
|-(2)-2-2-2-2-2-2-2-2-2-2-2-|-------0-0-0-0---0-2-|
|-(2)-2-2-2-2-2-2-2-2-2-2-2-|-2-----2-2-2-2-2-2-2-|
|-(0)---0---0---0-----0-----|-2-----2-2-2-2-2-2-0-|
|---------------------------|-0-----------0-0-----|
|
|-(0)-0---0---0---0-0---0-0-|---0-0-0-0-0---0-0-0-|
|-(2)-2---2---2---2-2---2-2-|---0-0-0-0-0---0-0-2-|
|-(2)-2-2-2-2-2-2-2-2-2-2-2-|---0-0-0-0-0---0-0-2-|
|-(2)-2-2-2-2-2-2-2-2-2-2-2-|-2-2-2-2-2-2-2-2-2-2-|
|-(0)---0---0---0-----0-----|-2-2-2-2-2-2-2-2-2-0-|
|---------------------------|-0-----------0-------|
|
|---------------------------|---------------------|
|---------------3-----2-----|---------------------|
|-(0)-----------------------|-4-2---2-0---0-2-2-0-|
|-(2)---2-2---2---2-----2---|---------------4-4-2-|
|---------------------------|---------------------|
|---------------------------|---------------------|


|-(0)-0---0---0-----0-0---------|
|-(2)-2---2---2-----2-2---------|
|-(2)-2-2-2-2-2---2-2-2-2-------|
|-(2)-2-2-2-2-2---2-2-2-2-------|
|-(0)---0---0-----0-----0-------|
|-------------------------------|
|
|--0--0---0---0-----0-0-----0---|
|--2--2---2---2-----2-2-----3---|
|--2--2-2-2-2-2---2-2-2-2-2-2---|
|--2--2-2-2-2-2---2-2-2-2-0-0---|
|--0----0---0-----0-----0-------|
|-------------------------------|
|
|-------------------------------|
|-------------------------------|
|-(0)-------------0-2---0-------|
|-(2)---2-2---2h4---------0-----|
|-------------------------------|
|-------------------------------|


  Fsus2                                 Bbm6  Bbm/Bbm6
  Gtrs II, III
|---0---0---0---0---0---0-|---0---0---0-3-3---2---0-0-0-||
|---3---3---3---3---3---3-|---3---3---3-3-3---3---3-3-3-||
|-2-2-2-2-2-2-2-2-2-2-2-2-|-2-2-2-2-2-2-0-0-x-0-x-0-0-0-||
|-0-0-0-0-0-0-0-0-0-0-0-0-|-0-0-0-0-0-0-x-x-x-x-x-x-x-x-||
|-------------------------|-------------1-1-x-1-x-1-1-1-||
|-------------------------|-----------------------------||
|
| Gtr IV
|-------------------------|-----------------------------||
|-------------------------|-----------------------------||
|-------------------------|---------2---3---2---0---3---||
|-------------------------|-----------------------------||
|-------------------------|-----------------------------||
|-------------------------|-----------------------------||
|
|-2-----------2-----------|-2-----------------------0---||
|-------3-----------3-----|-------3-------------3-------||
|-----2---2-------2---2---|-----2---2---0---3-----------||
|-------------------------|-----------------------------||
|-------------------------|-----------------------------||
|-------------------------|-----------------------------||


 Instrumental
  C                          Bbm
|----0-0-0-0-----0---0-0-0-|-------------------------|
|----2-2-2-2-----2---2-2-2-|---3-3-3-3---3-3-3-3-3-3-|
|--2-2-2-2-2-2---2-2-2-2-2-|---3-3-3-3---3-3-3-3-3-3-|
|--2-2-2-2-2-2---2-2-2-2-2-|-0-0-0-0-0-0-0-0-0-0-0-0-|
|--0---------0-----0-------|-x---------x-------------|
|--------------------------|-3---------3-------------|
|
|--------------------------|-------0---1-0-----------|
|-^2-----------------------|-----3-----------3-------|
|-^2-2-----------2-2---0---|---3-----------------3---|
|-^2---2-----2---2-2---0---|-------------------------|
|-^0-----0---0-------------|-------------------------|
|--------------------------|-3-----------------------|
|
|--------------------------|-----------5-3-----------|
|--2---2-----3p2-----------|-------3---------3-------|
|----------------2-----2---|-0-0-3---------------3---|
|----2---2---------2-------|-------------------------|
|--------------------------|-------------------------|
|--------------------------|-------------------------|


  C
|----0-0-0-0-----0-0-0-0-0-0-|
|----2-2-2-2-----2-2-2-2-2-2-|
|--2-2-2-2-2-2---2-2-2-2-2-2-|
|--2-2-2-2-2-2---2-2-2-2-2-2-|
|--0---------0---------------|
|----------------------------|
|
|----------------------------|
|-^2-----------------2-------|
|-^2-2-------2-----------2---|
|-^2---2-----2---------------|
|-^0-----0---0---------------|
|----------------------------|
|
|----------------------------|
|--2---------3p2-------------|
|----2---2-------2-------2---|
|------2-------------2-------|
|----------------------------|
|----------------------------|


  Bbm
|------------------------------|
|---3-3-3-3-3-----3-3-3-3--3-3-|
|---3-3-3-3-3-----3-3-3-3--3-3-|
|-0-0-0-0-0-0-0---0-0-0-0--0-0-|
|-x-----------x----------------|
|-3-----------3----------------|
|
|---3-----0---1---0-------!0---|
|---3---3-------------3---!0---|
|---3---------------------!0---|
|-------------------------!2---|
|-------------------------!2---|
|-3-----------------------!0---|
|
|-------------5p3--------------|
|---------3-------3------------|
|-0-0---3-------------3--------|
|------------------------------|
|------------------------------|
|------------------------------|


  Gm                          Bbm
|-----0-0-0-0-0---0-0-0-0-0-|--------------------------||
|-----0-0-0-0-0---0-0-0-0-0-|---3-3---3-3---3-3---3-3--||
|-----0-0-0-0-0---0-0-0-0-0-|---3-3---3-3---3-3---3-3--||
|--2--2-2-2-2-2-2-2-2-2-2-2-|-0-0-0-0-0-0-0-0-0-0-0-0--||
|--2--2-2-2-2-2-2-2-2-2-2-2-|-x-----x-----x-----x------||
|--0------------0-----------|-3-----3-----3-----3------||
|
|-(0)-----------------------|--------------------------||
|-(0)-----0-----------------|---3-----3-----3-----3----||
|-(0)-----------0---0---2---|-3-----2-----0-----3------||
|-(2)-------------4---------|--------------------------||
|-(2)-------2---------------|--------------------------||
|-(0)-----------------------|--------------------------||
|
|---------------0-----------|-------------------0------||
|-----------------0---------|-------1-----3------------||
|---------0---------0---2---|-3------------------------||
|--2--2-----2---------------|--------------------------||
|---------------------------|--------------------------||
|---------------------------|--------------------------||


 3rd Chorus
  Fsus2
|---0---0---0---0---0---0-|-----0---0---0---0---0---0-|
|---3---3---3---3---3---3-|-----3---3---3---3---3---3-|
|-2-2-2-2-2-2-2-2-2-2-2-2-|--2--2-2-2-2-2-2-2-2-2-2-2-|
|-0-0-0-0-0-0-0-0-0-0-0-0-|--0--0-0-0-0-0-0-0-0-0-0-0-|
|-------------------------|---------------------------|
|-------------------------|---------------------------|
|
|-------------------------|---------------------------|
|-------------------------|---------------------------|
|-2-----------------------|-(2)-----------------------|
|-------------------------|---------------------------|
|-------------------------|---------------------------|
|-------------------------|---------------------------|
|
|-2-----------2-----------|--2------------2-----------|
|-------3-----------3-----|---------3-----------3-----|
|-----2---2-------2---2---|-------2---2-------2---2---|
|-------------------------|---------------------------|
|-------------------------|---------------------------|
|-------------------------|---------------------------|


  Dmadd11+5
|---0---0---0---0---0---0-|---0---0---0---0---0---0----|
|---3---3---3---3---3---3-|---3---3---3---3---3---3----|
|-0-0-0-0-0-0-0-0-0-0-0-0-|-0-0-0-0-0-0-0-0-0-0-0-0----|
|-x-x-x-x-x-x-x-x-x-x-x-x-|-x-x-x-x-x-x-x-x-x-x-x-x----|
|-2-2-2-2-2-2-2-2-2-2-2-2-|-2-2-2-2-2-2-2-2-2-2-2-2----|
|-------------------------|----------------------------|
|
|-------------------------|----------------------------|
|-------------------------|----------------------------|
|-------------------------|----------------------------|
|-------------------------|----------------------------|
|-------------------------|----------------------------|
|-------------------------|----------------------------|
|
|-2-----------2-----------|-2-----------2--------------|
|-------3-----------3-----|-------3-----------3--------|
|-----0---0-------0---0---|-----0---0-------0---0------|
|-------------------------|----------------------------|
|-------------------------|----------------------------|
|-------------------------|----------------------------|


  Gm              C                               Gm              C
  Gtr II
|---0-0-0-0-0---0-0-|-(0)-0---0---0---0-0---0-0-|---0-0-0-0-0---0-0--|
|---0-0-0-0-0---0-2-|-(2)-2---2---2---2-2---2-2-|---0-0-0-0-0---0-2--|
|---0-0-0-0-0---0-2-|-(2)-2-2-2-2-2-2-2-2-2-2-2-|---0-0-0-0-0---0-2--|
|-2-2-2-2-2-2-2-2-2-|-(2)-2-2-2-2-2-2-2-2-2-2-2-|-2-2-2-2-2-2-2-2-2--|
|-2-2-2-2-2-2-2-2-0-|-(0)---0---0---0-----0-----|-2-2-2-2-2-2-2-2-0--|
|-0---------0-0-----|---------------------------|-0---------0-0------|
|
| Gtr III
|---0-0-0-0---0-0-0-|-(0)-0---0---0---0-0---0-0-|---0-0-0-0---0-0-0--|
|---0-0-0-0---0-0-2-|-(2)-2---2---2---2-2---2-2-|---0-0-0-0---0-0-2--|
|---0-0-0-0---0-0-2-|-(2)-2-2-2-2-2-2-2-2-2-2-2-|---0-0-0-0---0-0-2--|
|-2-2-2-2-2-2-2-2-2-|-(2)-2-2-2-2-2-2-2-2-2-2-2-|-2-2-2-2-2-2-2-2-2--|
|-2-2-2-2-2-2-2-2-0-|-(0)---0---0---0-----0-----|-2-2-2-2-2-2-2-2-0--|
|-0---------0-------|---------------------------|-0---------0--------|
|
|-------------------|---------------------------|--------------------|
|-------------------|---------------3-----2-----|--------------------|
|-4-2-2-0---0-2-2-0-|-(0)-----------------------|-4-2-2-0---0-2-2-0--|
|-------------4-4-2-|-(2)---2-2-2-----2-----2---|-------------4-4-2--|
|-------------------|---------------------------|--------------------|
|-------------------|---------------------------|--------------------|


  C
|-(0)-0---0---0---0-0-0---0-0-0-|
|-(2)-2---2---2---2-2-2---2-2-2-|
|-(2)-2-2-2-2-2-2-2-2-2-2-2-2-2-|
|-(2)-2-2-2-2-2-2-2-2-2-2-2-2-2-|
|-(0)---0---0---0-------0-------|
|-------------------------------|
|
|-(0)-0---0---0---0-0-0---0-0-0-|
|-(2)-2---2---2---2-2-2---2-2-2-|
|-(2)-2-2-2-2-2-2-2-2-2-2-2-2-2-|
|-(2)-2-2-2-2-2-2-2-2-2-2-2-2-2-|
|-(0)---0---0---0-------0-------|
|-------------------------------|
|
|---------------0---------------|
|-----------------------2-------|
|-(0)---------------------------|
|-(2)---2-2-2-------2-------2---|
|-------------------------------|
|-------------------------------|


                      H.=H
  Gm              C
|---0-0-0-0-0---0-0-|-(0)-0---0---0---0-0---0-0---||
|---0-0-0-0-0---0-2-|-(2)-2---2---2---2-2---2-2---||
|---0-0-0-0-0---0-2-|-(2)-2-2-2-2-2-2-2-2-2-2-2---||
|-2-2-2-2-2-2-2-2-2-|-(2)-2-2-2-2-2-2-2-2-2-2-2---||
|-2-2-2-2-2-2-2-2-0-|-(0)---0---0---0-----0-------||
|-0---------0-0-----|-----------------------------||
|
|---0-0-0-0---0-0-0-|-(0)-0---0---0---0-0---0-0---||
|---0-0-0-0---0-0-2-|-(2)-2---2---2---2-2---2-2---||
|---0-0-0-0---0-0-2-|-(2)-2-2-2-2-2-2-2-2-2-2-2---||
|-2-2-2-2-2-2-2-2-2-|-(2)-2-2-2-2-2-2-2-2-2-2-2---||
|-2-2-2-2-2-2-2-2-0-|-(0)---0---0---0-----0-------||
|-0---------0-------|-----------------------------||
|
|-------------------|-----------------------------||
|-------------------|-----------------------------||
|-4-2-2-0---0-2-2-0-|-(0)-----------0---2-0-------||
|-------------4-4-2-|-(2)-----2-2h4-----------0---||
|-------------------|-----------------------------||
|-------------------|-----------------------------||


 Outro
  Q=72
  F                            Bbm6
  Gtrs II, III
|-^2---------------|-(2)---------------|
|-^3---------------|-(3)---------------|
|-^2---------------|-(2)---------------|
|-^0---------------|-(0)---------------|
|------------------|-------------------|
|------------------|-------------------|
|
|------------------|-------------------|
|------------------|-------------------|
|------------------|-------------------|
|------------------|-------------------|
|------------------|-------------------|
|------------------|-------------------|
|
|--2-------2-------|--2--------------0-|
|------3-------3---|-------3-------3---|
|----2---2---2---2-|-----2---2-0-3-----|
|------------------|-------------------|
|------------------|-------------------|
|------------------|-------------------|


                    H.=H              Q=55
  F                         Bbm6      F
|-----------------|-----------------|-------*|
|-----------------|-----------------|-------*|
|-----------------|-----------------|-------*|
|-----------------|-----------------|-------*|
|-----------------|-----------------|-------*|
|-----------------|-----------------|-------*|
|
|-----------------|-----------------|-------*|
|-----------------|-----------------|-^3----*|
|-----------------|-----------0---0-|-^2----*|
|-----------------|-----0-2-3---2---|-^0----*|
|-----------------|-----------------|-------*|
|-----------------|-----------------|-------*|
|
|-2-------2-------|-2-------------0-|-^2----*|
|-----3-------3---|-----3-------3---|-^3----*|
|---2---2---2---2-|---2---2-0-3-----|-^2----*|
|-----------------|-----------------|-^0----*|
|-----------------|-----------------|-------*|
|-----------------|-----------------|-------*|
Comments