Radiohead - Nice Dream Chords & Tabs

 

Nice Dream Chords & Tabs

Radiohead Chords & Tabs

Version: 2 Type: Tab 0 ratings
1 star 2 stars 3 stars 4 stars 5 stars
comments

Nice Dream Tab

   
INTRO:
    C  B  Bb A Asus2 E  Esus
e|---3---2---1---0---0---0---|
B|---5---4---3---2---0---0---|
G|---5---4---3---2---1---2---|
D|---5---4---3---2---2---2---|
A|---3---2---1---0---2---2---|
E|---3---2---1---0---0---0---|

C  B  Bb  A | C  B  Bb  A | A  Asus2  A  Asus2

VERSE 1

     A		          D
They love me like I was a brother

			Esus     E
They protect me, listen to me

      A			  D
They dug me my very own garden

			    Esus     E
Gave me sunshine, made me happy

CHORUS:
[ Tab from: http://www.guitartabs.cc/tabs/r/radiohead/nice_dream_tab_ver_2.html ]
e|------------------|    -----------------------|
B|------------------|    -----------------------|
G|-----------7------|    ------------7----------|
D|------------------| x2  ---------7---7--------| x2
A|-------7-----7----|    -------7-------7-------|
E|-----7---7-----7--|    -----0-----------------|
  Nice dream             Nice dream

e|-----------5-----------5-----------5-----------5------|
B|---------5---5-----5-----5-----5-----5-----5-----5----|
G|-------6-------6-8---8-----8-6---6-----6-8---8-----8--|
D|-----7------------------------------------------------|
A|------------------------------------------------------|
E|------------------------------------------------------|
  Nice dream

VERSE 2

A			     D
I call up my friend the good angel


but she's out with

     Esus      E
her answerphone

    A				D
She says she would love to come help but


the sea would

E              Esus
electrocute us all

_________________________________
too lazy to do the rest, enjoy...
Comments