Radiohead - My Iron Lung Chords & Tabs

 

My Iron Lung Chords & Tabs

Radiohead Chords & Tabs

Version: 3 Type: Tab 0 ratings
1 star 2 stars 3 stars 4 stars 5 stars
comments

My Iron Lung Tab

------------------------------------------------------------
			     MY IRON LUNG -RADIOHEAD       
-------------------------------------------------------------

By: Danny McMillan

I can't find an exact version of this intro anywhere on da net.  This is how i play it.

p = pull off
^ = bend up and release
/ = slide

e|---------------------------------------------------
B|-----3p0------0--------1---------------------------
G|---0--------0---0----0---0--2^-2-0-----------------
D|----------3--------1-------------------------------
A|---------------------------------------------------
E|-3-------------------------------------------------
[ Tab from: http://www.guitartabs.cc/tabs/r/radiohead/my_iron_lung_tab_ver_3.html ]
e|---------------------------------------------------
B|-----3p0------0--------1----/------4---------------    
G|---0--------0---0----2---1--/----5-----------------
D|----------3--------1--------/--4-------------------
A|---------------------------------------------------
E|-3-------------------------------------------------

e|---------------------------------------------------
B|-----3p0------0--------1-3^-4-3-1------------------
G|---0--------0---0----0-----------------------------
D|----------3--------1-------------------------------
A|---------------------------------------------------
E|-3-------------------------------------------------

e|---------------------------------------------------
B|-----3p0------0-------1----------------------------
G|---0--------0---0---0---0-2^-3-2-0-----------------
D|----------3-------1--------------------------------
A|---------------------------------------------------
E|-3-------------------------------------------------

That sounds great when i play it.
This is only my first TAB so it mite not be 100% accurate but thats how i play it.
Comments