Radiohead - Lucky Chords & Tabs

 

Lucky Chords & Tabs

Radiohead Chords & Tabs

Version: 2 Type: Tab 0 ratings
1 star 2 stars 3 stars 4 stars 5 stars
comments

Lucky Tab

   
This is diffrent than the other tab, jsut takes the gutiars a step further.
Strum the strings behind the nut, 
I use a delay pedal, Repeats about 75-85% to the right. (depending on pedal) this is for a DD6
But Ed uses certian type of arangements on his pedalboard.


( )  - bend to Desired Note
 ~   - Ring
 x   - Mute
 ^   - Bend
 /   - Slide


Em       Am    G        Bm
 I'm on a roll, I'm on a roll

  Bm
E:-2-------2-0------0-:
B:-3-----3--------3---:
G:-4---4-------4------:
D:-4------------------:
A:-2------------------:
E:--------------------:

     Em
 ....this time
 C G       Bm         Em
 I feel my luck could change.
 
Em        Am     
 Kill me Sarah...
G         Bm           Em
 Kill me again....with love.
C          G       Bm        Em
 It's gonna be a glorious day.


Jonny. tremolo in front of a Wah or auto-filter pedal, + overdrive
E:-----:
B:--0~-:
G:--0~-:
D:--4~-:
A:--2~-:
E:-----:

~~~~~~~~~~~~~~~~CHORUS!~~~~~~~~~~~
        A                 Em
Pull me out  of the aircrash,
        A                  Em
Pull me out  of the lake
               A          Em
Cause I'm your       superhero,


E:--------------------------------------:
B:--14-14^(15)14-12---------------------:
G:------------------14-12----12----12---:
D:------------------------14----14------:
A:--------------------------------------:
E:--------------------------------------:
[ Tab from: http://www.guitartabs.cc/tabs/r/radiohead/lucky_tab_ver_2.html ]
E:---------------------------------------14^(15)14-12--:
B:--14-14^(15)14-12------------------------------------:
G:------------------14-12-----------12-----------------:
D:-------------------------12-12h14--------------------:
A:-----------------------------------------------------:
E:-----------------------------------------------------:

E:--------------------------------------:
B:--14-14^(15)14-12---------------------:
G:-----------------14-12----------------:
D:-----------------------14-12----------:
A:-----------------------------14-------:
E:--------------------------------------:

We are standing on the edge...

E:-----------0----:
B:--------1--0----:
G:------3----2----:
D:----2------1----:
A:--3--------2----:
E:----------------:



 Break
E:----0----0-------0------------:
B:--0--0----0-------0-----------:
G:--0---0----0-------0----0-----:
D:--2-----2---------------2-----:
A:--2-----2----2-2-2------2-----:
E:--0-----0----1^1^1^-----0-----:

Jonny
E:-----:
B:--0~-:
G:--0~-:
D:--4~-:
A:--2~-:
E:--0~--:

Verse

Chorus

Bridge

E:----0-0-0-0-0-xx--0-xx--0-xx-0--xx----------:
B:----7-7-7-7-7-xx--5-xx--3-xx-1--xx----------:
G:----0-0-0-0-0-xx--0-xx--0-xx-0--xx--0-0-0---:
D:----x-x-x-x-x-xx--x-xx--x-xx-x--xx----------:
A:----9-9-9-9-9-----7-----5----3--------------:
E:--0-------------------------------2-2-2-----:

E:-----------------------------------:
B:-19-19-19-19-19-19-17-15-13--------:
G:----------------------------11~-9~-:
D:-----------------------------------:
A:-----------------------------------:
E:-----------------------------------:

Em Em Em Em (repeat as needed) till the begining of last chorus chorus.

Jonny: Tremolo/distortion and something else (wah wah?). Expermient.
E:-0----------:
B:--0---------:
G:---0--------:
D:----4-------:
A:-----2------:
E:------------:

E:---------------------------------------------:
B:--3/555--3/555--3/555-55-5-5-5-8-5-8---------:
G:---------------------------------------------:
D:---------------------------------------------:
A:---------------------------------------------:
E:---------------------------------------------:


End Chorus
Comments