Radiohead - Let Down Chords & Tabs

 

Let Down Chords & Tabs

Radiohead Chords & Tabs

Version: 1 Type: Tab 0 ratings
1 star 2 stars 3 stars 4 stars 5 stars
comments

Let Down Tab

   
Added by Mikhailo (mikhailo_@mail.ru)

Artist : Radiohead
Song   : "Let Down"

Intro:
E||------------------5-----|-----------0--------------|
B||---------3-----3--------|--3-----3--------3-----3--|
G||------6-----6--------6--|-----6--------6-----6-----|
D||------------------------|--------------------------|
A||------------------------|--------------------------|
E||------------------------|--------------------------|

--4--------------0--------|--------5--------------0--|
--------3-----3--------3--|-----3--------3-----3-----|
-----6-----6--------6-----|--6--------6-----6--------|
--------------------------|--------------------------|
--------------------------|--------------------------|
--------------------------|--------------------------|

--------------4-----------|-----0--------------5-----|
-----3-----3--------3-----|--3--------3-----3--------|
--6-----6--------6-----6--|--------6-----6--------6--|
--------------------------|--------------------------|
--------------------------|--------------------------|
--------------------------|--------------------------|

-----------0--------------|--4--------------0--------|
--3-----3--------3-----3--|--------3-----3--------3--|
-----6--------6-----6-----|-----6-----6--------6-----|
--------------------------|--------------------------|
--------------------------|--------------------------|
--------------------------|--------------------------|

--------5--------------0--|--------------4-----------|
-----3--------3-----3-----|-----3-----3--------3-----|
--6--------6-----6--------|--6-----6--------6-----6--|
--------------------------|--------------------------|
--------------------------|--------------------------|
--------------------------|--------------------------|

A
Transports, Motorways, and 
E
Tramlines, Starting and then 
F#m
Stopping, Taking off and
E
Landing. The emptiest of
A
Feelings. Disappointed 
E
People, clinging on to 
F#m
Bottles. When it comes it's 
E
Oh so Disappointing


Chorus:
[ Tab from: http://www.guitartabs.cc/tabs/r/radiohead/let_down_tab.html ]
-------2--2-------0--0--|-------0--0-------------|------------------------|
--3----3--3--3----3--3--|-------2--2-------3--3--|--3----3--3--3----3--3--|
--2----2--2--2----2--2--|--2----2--2--2----2--2--|--2----2--2--2----2--2--|
--0----0--0--0----0--0--|--2----2--2--0----0--0--|--0----0--0--0----0--0--|
------------------------|--0---------------------|------------------------|
------------------------|-------------2----------|--2----------2----------|
Let down and hanging around

-------2--2-------0--0--|-------0--0-------------|------------------------|
--3----3--3--3----3--3--|-------2--2-------3--3--|--3----3--3--3----3--3--|
--2----2--2--2----2--2--|--2----2--2--2----2--2--|--2----2--2--2----2--2--|
--0----0--0--0----0--0--|--2----2--2--0----0--0--|--0----0--0--0----0--0--|
------------------------|--0---------------------|------------------------|
------------------------|-------------2----------|--2----------2----------|
Crushed like a bug in a ground

-------2--2-------0--0--|-------0--0-------------|-------0--0-------0----|
--3----3--3--3----3--3--|-------2--2-------3--3--|-------0--0-------0----|
--2----2--2--2----2--2--|--2----2--2--2----2--2--|--1----1--1--1----1----|
--0----0--0--0----0--0--|--2----2--2--0----0--0--|--2----2--2--2----2----|
------------------------|--0---------------------|--2----2--2--2----2----|
------------------------|-------------2----------|--0----------0----0----|
Let down and hangin around

Solo:

(capo 7)

----------------------|-------------------------|--------------------------|
-------------------3--|----------3--------3-----|-----------------------3--|
----2----4----6-------|----6--------6--------6--|-----2-----4-----6--------|
----------------------|-------0--------0--------|--0-----0-----0-----0-----|
----------------------|-------------------------|--------------------------|
----------------------|-------------------------|--------------------------|

--------------------------|--------------------------|
--------3-----------7-----|-----------------------3--|
--6--------6-----6-----6--|-----2-----4-----6--------|
-----0--------0-----------|--0-----0-----0-----0-----|
--------------------------|--------------------------|
--------------------------|--------------------------|

--------------------5-----|--------------------------|
--------3--------------0--|-----------------------3--|
--6--------6-----6--------|-----2-----4-----6--------|
-----0--------0-----------|--0-----0-----0-----0-----|
--------------------------|--------------------------|
--------------------------|--------------------------|

--------------------------|------------------|------------------|
--------3-----------7-----|------------------|------------------|
--6--------6-----6-----6--|------------------|------------------|
-----0--------0-----------|------------------|------------------|
--------------------------|------------------|------------------|
--------------------------|------------------|------------------|
Comments