Radiohead - Let Down Chords & Tabs

 

Let Down Chords & Tabs

Radiohead Chords & Tabs

Version: 2 Type: Bass Tab 0 ratings
1 star 2 stars 3 stars 4 stars 5 stars
comments

Let Down Bass Tab

   
Radiohead
"Let Down"

Intro
   A                 
G:|------------|------------------|
D:|------------|---12---11--|
A:|12---12--12------------12--|
E:|------------|------------------|
[ Tab from: http://www.guitartabs.cc/tabs/r/radiohead/let_down_btab_ver_2.html ]
Verse
    A                 E                 F#                E
G:|--------|--------|--------|--------|--------|--------|--------|--------|
D:|--------|--------|--------|--------|--------|--------|--------|--------|
A:|0---00--|0-0-4-0-|--------|--------|--------|--------|--------|--------|
E:|--------|--------|0---00--|0-0-0-0-|2---22--|2-2-2-2-|0---00--|0-0-0-0-|

Chorus
G:|--------|--------|--------|--------|--------|--------|--------|--------|
D:|--------|--------|--------|--------|--------|--------|--------|--------|
A:|5--4-2--|4-540---|5--4-2--|4-540---|5--4-2--|4-540---|7--5420-|0-------|
E:|--------|--------|--------|--------|--------|--------|--------|--------|

After the chorus, sometimes it goes into a slight retard like
G:|--------|---------|
D:|--------|---------|
A:|9--7542-|0--------| 
E:|--------|---------|

or sometimes it fills with the intro again.  Listen carefully to figure this song out
Comments