Radiohead - Karma Police Chords & Tabs

 

Karma Police Chords & Tabs

Radiohead Chords & Tabs

Version: 1 Type: Bass Tab 0 ratings
1 star 2 stars 3 stars 4 stars 5 stars
comments

Karma Police Bass Tab

Song - Karma Police
Band - Radiohead
Album - OK Computer
Bass Tab

Tabbed by Philip (moon_acid@hotmail.com)

Intro and 1st verse

G |: ----------------------------------------------
D |: ----------------------------------------------
A |: ----------------------------------------------
E |: 5--5-5-2--2-2-0--2-3-3--5--5-5-1--1-1-0--2-3-3

G |: -----------------------------------------------
D |: -------------------------------------------2--0
A |: ------------------------3-2------------2-2-----
E |: 5--5-5/10--10-10-3--3-3------5-5-555-3---------

2nd and 3rd verse

G |: -----------------------------------------------
D |: -----------------------------------------------
A |: ---------------------------------8-8-10-7------
E |: 5--5-5-2-2-2-1-0-0-2-3-3--5--5-5----------0-2-3

G |: ------------------------------------------------
D |: --------------------------------------------2--0
A |: -------5--5-5--------3-3-2-2------------2-2-----
E |: 5--5-5--------3--3-3----------5-5-555-3---------

chorus

G |: ---------------------------
D |: ---------------------------     x3
A |: 3--3-3-2--2-2-5--5-5-------
E |: ---------------------3--3-3
[ Tab from: http://www.guitartabs.cc/tabs/r/radiohead/karma_police_btab.html ]
G |: -----------------------------
D |: -----------------------------
A |: 3-3-2-2----------------------
E |: --------5-5-3-3-2-0-0-2-0-0-2

outro

riff 1

G |: --------------------------------------------------
D |: --------------------------------------------------     x2
A |: 2-2-2-2-5-5-5-5------5--------5--5-5-7-7-5-7-7-7-5
E |: ----------------3---3--2-0--3---------------------

riff 2

G |: ----------------------------------------------
D |: -------------------------------7-5-7-9--------
A |: 2-4-5-7-9-10-12-14-10--7-5-7-9---------7-5-7-9
E |: ----------------------------------------------

G |: ---------------------
D |: ---------------------
A |: 10-10-9-9------------
E |: ----------12-12-10-10

riff 3

G |: -----------------------------------------------
D |: -----------------------------------------------
A |: 2-4-5-2-5-7-9-5---------5-7-9-5---------5-7-9-5
E |: ----------------3-5-7-3---------3-5-7-3--------

G |: ---------------------
D |: ---------------------
A |: 10-10-9-9------------
E |: ----------12-12-10-10

Riff Order

riff 1     x2
riff 2
riff 3
riff 3
riff 2
riff 3
riff 2

Excellent song to play, definitly my favourite. Great sections in there,
especially riff 2
Any questions or anything please e-mail me at moon_acid@hormail.com

Thanks

Comments