Radiohead - Just Chords & Tabs

 

Just Chords & Tabs

Radiohead Chords & Tabs

Version: 4 Type: Tab 0 ratings
1 star 2 stars 3 stars 4 stars 5 stars
comments

Just Tab

                                "Just"

                          Words and Music by:
Colin Greenwood, Jonathan Greenwood, Edward O'Brien, Philip Selway & Thomas Yorke


Gtr. 1: Thom (acoustic)
Gtr. 2: Jonny (Electric)
Gtr. 3: Ed (Electric)
Gtr. 4: Jonny (Electric Overdub)


Tune all guitars up 1/4 step


[   Gtr. 1 (Acoustic)
[E||----------------------------|-------------------------------|
[B||--5----5--5-5---8-8--8----7-|--7--7--7--7-7---10-10--10-----|
[G||--5----5--5-5-x-8-8--8--x-7-|--7--7--7--7-7-x-10-10--10-----|
[D||--5----5--5-5-x-8-8--8--x-7-|--7--7--7--7-7-x-10-10--10--0--|
[A||--3----3--3-3-x-6-6--6--x-5-|--5--5--5--5-5-x-8--8---8---0--|
[E||----------------------------|-------------------------------|
[
[   Gtr. 3 (Elec. w/Heavy Dist.)
[E||----------------------------|-------------------------------|
[B||----------------------------|-----------------------x-------|
[G||----------------------------|-------------------x---x-x---x-|
[D||----------------------------|-----------------x-x-x-x-x-x-x-|
[A||----------------------------|-----------------x-x-x-x-x-x-x-|
[E||----------------------------|-----------------x---x---------|



[ Gtr. 1
[|----------------------------|-------------------------------|
[|--5----5--5-5---8-8--8------|--7--7--7--7-7---10-10--10-----|
[|--5----5--5-5-x-8-8--8--x-x-|--7--7--7--7-7-x-10-10--10-----|
[|--5----5--5-5-x-8-8--8--x-x-|--7--7--7--7-7-x-10-10--10--0--|
[|--3----3--3-3-x-6-6--6--x-x-|--5--5--5--5-5-x-8--8---8---0--|
[|----------------------------|-------------------------------|
[
[ Gtr. 2 (Jonny) w/ heavy dist.
[  T.P.-------------------------------------------------------|
[|----------------------------|--------------------------7----|
[|----------------------------|--------------------------x----|
[|--5---------7---8-------10--|--11--------13---14-------4----|
[|--x---------x---x-------x---|--x---------x----x-------------|
[|--3---------5---6-------8---|--9---------11---12------------|
[|----------------------------|-------------------------------|
[
[ Gtr. 3 (Ed)
[|----------------------------|-------------------------------|
[|----------------------------|-------------------------------|
[|--5----5--------8-8--8--8-7-|--7----7--------10-10--10--10/-|
[|--x----x--------x-x--x--x-x-|--x----x--------x--x---x---x---|
[|--3----3--------6-6--6--6-5-|--5----5--------8--8---8---8/--|
[|----------------------------|-------------------------------|



[ Gtr. 1
[|----------------------------|-------------------------------|
[|--5----5--5-5---8-8--8----7-|--7--7--7--7-7---10-10--10-----|
[|--5----5--5-5-x-8-8--8--x-7-|--7--7--7--7-7-x-10-10--10-----|
[|--5----5--5-5-x-8-8--8--x-7-|--7--7--7--7-7-x-10-10--10--0--|
[|--3----3--3-3-x-6-6--6--x-5-|--5--5--5--5-5-x-8--8---8---0--|
[|----------------------------|-------------------------------|
[
[ Gtr. 2
[  T.P.---------------------------------------------------------|
[|--8--------10--11-------13--|--14--------16---17-------17/----|
[|--x--------x---x--------x---|--x---------x----x--------x------|
[|--5--------7---8--------10--|--11--------13---14-------14/----|
[|----------------------------|---------------------------------|
[|----------------------------|---------------------------------|
[|----------------------------|---------------------------------|
[
[ Gtr. 3
[|----------------------------|-------------------------------|
[|----------------------------|-------------------------------|
[|--5----5--------8-8--8--8-7-|--7----7--------10-10--10--10/-|
[|--x----x--------x-x--x--x-x-|--x----x--------x--x---x---x---|
[|--3----3--------6-6--6--6-5-|--5----5--------8--8---8---8/--|
[|----------------------------|-------------------------------|



[  Can't get the stink off     He's been hangin' round for days
[ Gtr. 1
[|-------------------------|------------------------------|
[|-------------------------|------------------------------|
[|-------------------------|--5-----5----5----5---5-------|
[|--7---------------7------|--6-----6----6----6---6---x-x-|
[|--7---------------7--x-x-|--6-----6----6----6---6---x-x-|
[|--5---------------5--x-x-|--4-----4----4----4---4---x-x-|



[                                  Comes like a Comet
[ Gtr. 1
[|------------------------------|----------------------------|
[|-----------------------1------|----------------------------|
[|--8--8--x--------------2------|----------------------------|
[|--8--8--x---3-------3--3--x-x-|--7----7--7-7-7-7-7--7--x-x-|
[|--6--6--x---3-------3--3--x-x-|--7----7--7-7-7-7-7--7--x-x-|
[|------------1-------1--1--x-x-|--5----5--5-5-5-5-5--5--x-x-|
[
[ Gtr. 2 (clean)
[|------------------------------|----------------------------|
[|------------------------------|----------------------------|
[|-----12-13-15----14--15--17~--|----------------------------|
[|----13----------15------------|----------------------------|
[|---x-----------x--------------|----------------------------|
[|--11----------13--------------|----------------------------|



[   Suckered you but not your friends
[ Gtr. 1
[|---------------------------|-----------6------------|
[|---------------------------|-----------6-------6/---|
[|--5--5--5--5-5---5--5------|--8--8--x--7-------7/---|
[|--6--6--6--6-6---6--6--x-x-|--8--8--x--8----8--8/---|
[|--6--6--6--6-6---6--6--x-x-|--6--6--x--8----8--8/---|
[|--4-----4--4-4---4--4--x-x-|-----------6----6--6/---|
[
[ Gtr. 2
[|---------------------------|------------------------|
[|---------------------------|------------------------|
[|---------------------------|-----12-13-15----7-8-10-|
[|---------------------------|----13----------x-------|
[|---------------------------|---x-----------x--------|
[|---------------------------|-11-----------6---------|



[    One day he'll get to you   and teach you how to be a
[ Gtr. 1
[|---------------------------|--------------------------|
[|---------------------------|--------------------------|
[|---------------------------|--5-----5---5---5--5------|
[|--7----7---7-7-7-7--7--x-x-|--6-----6---6---6--6--x-x-|
[|--7----7---7-7-7-7--7--x-x-|--6--6--6---6---6--6--x-x-|
[|--5----5---5-5-5-5--5--x-x-|--4--4--4---4---4--4--x-x-|
[
[ Gtr. 2       1                          .5
[|---------------------------|--------------------------|
[|---------------------------|--------------------------|
[|--------5-7--7b-------5----|-------5-7--7b-------5----|
[|------5------------7-------|-----6------------6-------|
[|---------------------------|--------------------------|
[|---------------------------|--------------------------|



[   Holy                       Cow   You do it to yourself
[ Gtr. 1
[|---------------------------|----------------------------|
[|---------------------------|----------------------------|
[|--------4------3--3--3-----|--2-------------------------|
[|--5--5--5------4--4--4-----|--3-------------------------|
[|--5--5--5--x---4--4--4--x--|--3-------------------------|
[|--3--3--3--x-0-2--2--2--x--|--1-------------------------|
[
[ Gtr. 2                        .5
[|---------------------------|----------------------------|
[|---------------------------|----------------------------|
[|--4------------5-----------|--8b------------------------|
[|-----5------------4--------|----------------------------|
[|--------5------------4-----|----------------------------|
[|---------------------------|----------------------------|



[          You do and that's what really hurts 'cause you do it to yourself
[ Gtr. 1
[|------------------------------|-------------------------------|
[|--1----1----------------------|-------------------------------|
[|--0----0--x-----3-3-3-3-3-----|--2--2--2--2-2---2-2-2-2-2-----|
[|--2----2--x-0-0-4-4-4-4-4-x-x-|--3--3--3--3-3-x-3-3-3-3-3-x-x-|
[|--3----3--x-0-0-4-4-4-4-4-x-x-|--3--3--3--3-3-x-3-3-3-3-3-x-x-|
[|----------------2-2-2-2-2-x-x-|--1--1--1--1-1-x-1-1-1-1-1-x-x-|
[
[ Gtr. 2 (w/heavy dist.)
[|---------------------0-----0--|-----------------------0-------|
[|------------------------------|---------------------------1---|
[|-------------------------3----|-------------------------------|
[|--10/-----------4-------------|--3----------------------------|
[|--10/-----------4-------------|--3----------------------------|
[|--8/------------2-------------|--1----------------------------|
[
[ Gtr. 3 (w/heavy dist.)
[|------------------------------|-------------------------------|
[|------------------------------|-------------------------------|
[|------------------------------|-------------------------------|
[|--10/-----------4---4---4---4-|--3------3------------3--------|
[|--10/-----------4---4---4---4-|--3----------3-------------3/--|
[|--8/------------2---2---2---2-|--1----------------1-----------|



[        Just you              You and no one else You do it to yourself
[ Gtr. 1
[|------------------------------|-------------------------------|
[|--1----1----------------------|-------------------------------|
[|--0----0--x-----3-3-3-3-3-----|--2--2--2--2-2---2-2-2-2-2-----|
[|--2----2--x-0-0-4-4-4-4-4-x-x-|--3--3--3--3-3-x-3-3-3-3-3-x-x-|
[|--3----3--x-0-0-4-4-4-4-4-x-x-|--3--3--3--3-3-x-3-3-3-3-3-x-x-|
[|----------------2-2-2-2-2-x-x-|--1--1--1--1-1-x-1-1-1-1-1-x-x-|
[
[ Gtr. 2
[|---------------------0------0-|-----------------------0-------|
[|------------------------------|---------------------------1---|
[|-------------------------3----|-------------------------------|
[|--10/-----------4-------------|--3----------------------------|
[|--10/-----------4-------------|--3----------------------------|
[|--8/------------2-------------|--1----------------------------|
[
[ Gtr. 3
[|------------------------------|-------------------------------|
[|------------------------------|-------------------------------|
[|------------------------------|-------------------------------|
[|--10/-----------4---4---4---4-|--3--3--3--3---3-3-3-3-3-3--3--|
[|--10/-----------4---4---4---4-|--3--3--3--3---3-3-3-3-3-3--3--|
[|--8/------------2---2---2---2-|--1--1--1--1---1-1-1-1-1-1--1--|



[                                               You do it to Yourself
[ Gtr. 1
[|--------------------------------|-----------------------------------|
[|--1--1-1-1-1-1-1-8--8-8-8-8-8-8-|--7--7--7-7-10---10-10-10-10-10----|
[|--0--0-0-0-0-0-0-8--8-8-8-8-8-8-|--7--7--7-7-10---10-10-10-10-10----|
[|--2--2-2-2-2-2-2-8--8-8-8-8-8-8-|--7--7--7-7-10---10-10-10-10-10----|
[|--3--3-3-3-3-3-3-6--6-6-6-6-6-6-|--5--5--5-5-8----8--8--8--8--8--00-|
[|--------------------------------|-----------------------------------|
[
[ Gtr. 2
[ T.P.------------------------------------------------------------------|
[|--------------------------------|-------------------------------7-----|
[|--------------------------------|-------------------------------x-----|
[|--5-----------7---8---------10--|--11--------13---14------------4-----|
[|--x-----------x---x---------x---|--x---------x----x-------------------|
[|--3-----------5---6---------8---|--9---------11---12------------------|
[|--------------------------------|-------------------------------------|
[
[ Gtr. 3
[|--------------------------------|-----------------------------------|
[|--------------------------------|-----------------------------------|
[|--5----5----------8--8---8--8-7-|--7----7---------10--10---10---10/-|
[|--x----x----------x--x---x--x-x-|--x----x---------x---x----x----x---|
[|--3----3----------6--6---6--6-5-|--5----5---------8---8----8----8/--|
[|--------------------------------|-----------------------------------|



[
[ Gtr. 1
[|--------------------------------|----------------------------------|
[|--1--1-1-1-1-1-1-8--8-8-8-8-8-8-|--7--7--7-7-10---10-10--10-10-----|
[|--0--0-0-0-0-0-0-8--8-8-8-8-8-8-|--7--7--7-7-10---10-10--10-10-----|
[|--2--2-2-2-2-2-2-8--8-8-8-8-8-8-|--7--7--7-7-10---10-10--10-10-x-x-|
[|--3--3-3-3-3-3-3-6--6-6-6-6-6-6-|--5--5--5-5-8----8--8---8--8--x-x-|
[|--------------------------------|------------------------------x-x-|
[
[ Gtr. 2
[ T.P.----------------------------------------------------------------|
[|--8----------10--11---------13--|--14--------16---17---------17/----|
[|--x----------x---x----------x---|--x---------x----x----------x------|
[|--5----------7---8----------10--|--11--------13---14---------14/----|
[|--------------------------------|-----------------------------------|
[|--------------------------------|-----------------------------------|
[|--------------------------------|-----------------------------------|
[
[
[ Gtr. 3
[|--------------------------------|---------------------------------|
[|--------------------------------|---------------------------------|
[|--5----5----------8--8---8--8-7-|--7----7---------10--10--10--10/-|
[|--x----x----------x--x---x--x-x-|--x----x---------x---x---x---x---|
[|--3----3----------6--6---6--6-5-|--5----5---------8---8---8---8/--|
[|--------------------------------|---------------------------------|



[    Don't get my sympathy     hangin' out the fifteenth
[ Gtr. 1
[|---------------------------|--------------------------|
[|---------------------------|--------------------------|
[|---------------------------|--5-----5---5---5--5------|
[|--7----7---7-7-7-7--7--x-x-|--6-----6---6---6--6--x-x-|
[|--7----7---7-7-7-7--7--x-x-|--6--6--6---6---6--6--x-x-|
[|--5----5---5-5-5-5--5--x-x-|--4--4--4---4---4--4--x-x-|
[
[ Gtr. 3 (w/clean tone)
[   ^                           ^
[|--5~-----------------------|--4~----------------------|
[|--5~-----------------------|--4~----------------------|
[|--5~-----------------------|--5~----------------------|
[|--7~-----------------------|--6~----------------------|
[|--7~-----------------------|--6~----------------------|
[|--5~-----------------------|--4~----------------------|




[   floor                        You've changed the locks three times
[ Gtr. 1
[|----------------------------|----------------------------|
[|---------------------1------|----------------------------|
[|--8--8--x------------2------|----------------------------|
[|--8--8--x----3----3--3--x-x-|--7----7--7-7-7-7-7--7--x-x-|
[|--6--6--x----3----3--3--x-x-|--7----7--7-7-7-7-7--7--x-x-|
[|-------------1----1--1--x-x-|--5----5--5-5-5-5-5--5--x-x-|
[
[ Gtr. 2 (w/ clean tone)
[|----------------------------|----------------------------|
[|----------------------------|----------------------------|
[|-----12--13----14--15--17~--|----------------------------|
[|----13--------15------------|----------------------------|
[|---x---------x--------------|----------------------------|
[|--11--------13--------------|----------------------------|
[
[ Gtr. 3                         ^
[|----------------------------|--5~------------------------|
[|----------------------------|--5~------------------------|
[|----------------------------|--5~------------------------|
[|----------------------------|--7~------------------------|
[|----------------------------|--7~------------------------|
[|----------------------------|--5~------------------------|



[      I still come reeling throught the door
[ Gtr. 1
[|---------------------------|-----------6------------|
[|---------------------------|-----------6-------6/---|
[|--5-----5--5-5---5--5------|--8--8--x--7-------7/---|
[|--6-----6--6-6---6--6--x-x-|--8--8--x--8----8--8/---|
[|--6--6--6--6-6---6--6--x-x-|--6--6--x--8----8--8/---|
[|--4-----4--4-4---4--4--x-x-|-----------6----6--6/---|
[
[ Gtr. 2
[|---------------------------|------------------------|
[|---------------------------|------------------------|
[|---------------------------|-----12-13-15----7-8-10-|
[|---------------------------|----13----------x-------|
[|---------------------------|---x-----------x--------|
[|---------------------------|-11-----------6---------|
[
[ Gtr. 3
[   ^
[|--4~-----------------------|------------------------|
[|--4~-----------------------|------------------------|
[|--5~-----------------------|------------------------|
[|--6~-----------------------|------------------------|
[|--6~-----------------------|------------------------|
[|--4~-----------------------|------------------------|



[      One day I'll get to you and teach you how to get to
[ Gtr. 1
[|---------------------------|--------------------------|
[|---------------------------|--------------------------|
[|---------------------------|--5-----5---5---5--5------|
[|--7----7---7-7-7-7--7--x-x-|--6-----6---6---6--6--x-x-|
[|--7----7---7-7-7-7--7--x-x-|--6--6--6---6---6--6--x-x-|
[|--5----5---5-5-5-5--5--x-x-|--4--4--4---4---4--4--x-x-|
[
[ Gtr. 2        1                         .5
[|---------------------------|--------------------------|
[|---------------------------|--------------------------|
[|--------5-7--7br------5----|-------5-7--7br------5----|
[|------5------------7-------|-----6------------6-------|
[|---------------------------|--------------------------|
[|---------------------------|--------------------------|
[
[ Gtr. 3
[|---------------------------|--------------------------|
[|----------5~---------------|--------------------------|
[|------5--------------------|---------8~---------------|
[|---------------------------|--------------------------|
[|---------------------------|--6-----------------------|
[|--5------------------------|--------------------------|



[   Purest                      Hell  You do it to yourself
[ Gtr. 1
[|---------------------------|-----------------------------|
[|---------------------------|-----------------------------|
[|--------4------3--3--3-----|--2--------------------------|
[|--5--5--5------4--4--4-----|--3--------------------------|
[|--5--5--5--x---4--4--4--x--|--3--------------------------|
[|--3--3--3--x-0-2--2--2--x--|--1--------------------------|
[
[ Gtr. 2                        .5
[|---------------------------|-----------------------------|
[|---------------------------|-----------------------------|
[|--4------------5-----------|--8b-------------------------|
[|-----5------------4--------|-----------------------------|
[|--------5------------4-----|-----------------------------|
[|---------------------------|-----------------------------|
[
[ Gtr. 3
[|---------------------------|-----------------------------|
[|---------------------------|-----------------------------|
[|--4-----4~-----3-----3~----|--2--------------------------|
[|-----5------------4--------|--3--------------------------|
[|---------------------------|-----------------------------|
[|---------------------------|-----------------------------|



[          You do  and that's what really hurts 'cause you do it to yourself
[ Gtr. 1
[|------------------------------|-------------------------------|
[|--1----1----------------------|-------------------------------|
[|--0----0--x-----3-3-3-3-3-----|--2--2--2--2-2---2-2-2-2-2-----|
[|--2----2--x-0-0-4-4-4-4-4-x-x-|--3--3--3--3-3-x-3-3-3-3-3-x-x-|
[|--3----3--x-0-0-4-4-4-4-4-x-x-|--3--3--3--3-3-x-3-3-3-3-3-x-x-|
[|----------------2-2-2-2-2-x-x-|--1--1--1--1-1-x-1-1-1-1-1-x-x-|
[
[ Gtr. 2 (w/ heavy dist.)
[|---------------------0-----0--|-----------------------0-------|
[|------------------------------|---------------------------1---|
[|-------------------------3----|-------------------------------|
[|--10/-----------4-------------|--3----------------------------|
[|--10/-----------4-------------|--3----------------------------|
[|--8/------------2-------------|--1----------------------------|
[
[ Gtr. 3 (w/ heavy dist.)
[|------------------------------|-------------------------------|
[|------------------------------|-------------------------------|
[|------------------------------|-------------------------------|
[|--10/-----------4---4---4---4-|--3------3------------3--------|
[|--10/-----------4---4---4---4-|--3----------3-------------3/--|
[|--8/------------2---2---2---2-|--1----------------1-----------|



[        just you            you and no one else  you do it to yourself
[ Gtr. 1
[|------------------------------|-------------------------------|
[|--1----1----------------------|-------------------------------|
[|--0----0--x-----3-3-3-3-3-----|--2--2--2--2-2---2-2-2-2-2-----|
[|--2----2--x-0-0-4-4-4-4-4-x-x-|--3--3--3--3-3-x-3-3-3-3-3-x-x-|
[|--3----3--x-0-0-4-4-4-4-4-x-x-|--3--3--3--3-3-x-3-3-3-3-3-x-x-|
[|----------------2-2-2-2-2-x-x-|--1--1--1--1-1-x-1-1-1-1-1-x-x-|
[
[ Gtr. 2
[|---------------------0------0-|-----------------------0-------|
[|------------------------------|---------------------------1---|
[|-------------------------3----|-------------------------------|
[|--10/-----------4-------------|--3----------------------------|
[|--10/-----------4-------------|--3----------------------------|
[|--8/------------2-------------|--1----------------------------|
[
[ Gtr. 3
[|------------------------------|-------------------------------|
[|------------------------------|-------------------------------|
[|------------------------------|-------------------------------|
[|--10/-----------4---4---4---4-|--3--3--3--3---3-3-3-3-3-3--3--|
[|--10/-----------4---4---4---4-|--3--3--3--3---3-3-3-3-3-3--3--|
[|--8/------------2---2---2---2-|--1--1--1--1---1-1-1-1-1-1--1--|



[                                                 You do it to yourself
[ Gtr. 1
[|--------------------------------|------------------------------------|
[|--1--1-1-1-1-1-1-8--8-8-8-8-8-8-|--7--7--7-7-10---10-10-10-10-10-----|
[|--0--0-0-0-0-0-0-8--8-8-8-8-8-8-|--7--7--7-7-10---10-10-10-10-10-----|
[|--2--2-2-2-2-2-2-8--8-8-8-8-8-8-|--7--7--7-7-10---10-10-10-10-10-----|
[|--3--3-3-3-3-3-3-6--6-6-6-6-6-6-|--5--5--5-5-8----8--8--8--8--8--0-0-|
[|--------------------------------|------------------------------------|
[
[ Gtr. 2
[ T.P.------------------------------------------------------------------|
[|--------------------------------|-------------------------------7-----|
[|--------------------------------|-------------------------------x-----|
[|--5-----------7---8---------10--|--11--------13---14------------4-----|
[|--x-----------x---x---------x---|--x---------x----x-------------------|
[|--3-----------5---6---------8---|--9---------11---12------------------|
[|--------------------------------|-------------------------------------|
[
[ Gtr. 3 (Ed)
[|--------------------------------|-----------------------------------|
[|--------------------------------|-----------------------------------|
[|--5----5----------8--8---8--8-7-|--7----7---------10--10---10---10/-|
[|--x----x----------x--x---x--x-x-|--x----x---------x---x----x----x---|
[|--3----3----------6--6---6--6-5-|--5----5---------8---8----8----8/--|
[|--------------------------------|-----------------------------------|



[  Gtr. 1
[|--------------------------------|----------------------------------|
[|--1--1-1-1-1-1-1-8--8-8-8-8-8-8-|--7--7--7-7-10---10-10--10-10-----|
[|--0--0-0-0-0-0-0-8--8-8-8-8-8-8-|--7--7--7-7-10---10-10--10-10-----|
[|--2--2-2-2-2-2-2-8--8-8-8-8-8-8-|--7--7--7-7-10---10-10--10-10-x-x-|
[|--3--3-3-3-3-3-3-6--6-6-6-6-6-6-|--5--5--5-5-8----8--8---8--8--x-x-|
[|--------------------------------|------------------------------x-x-|
[
[  Gtr. 2
[ T.P.----------------------------------------------------------------|
[|--8----------10--11---------13--|--14--------16---17---------17/----|
[|--x----------x---x----------x---|--x---------x----x----------x------|
[|--5----------7---8----------10--|--11--------13---14---------14/----|
[|--------------------------------|-----------------------------------|
[|--------------------------------|-----------------------------------|
[|--------------------------------|-----------------------------------|
[
[  Gtr. 3
[|--------------------------------|---------------------------------|
[|--------------------------------|---------------------------------|
[|--5----5----------8--8---8--8-7-|--7----7---------10--10--10--10/-|
[|--x----x----------x--x---x--x-x-|--x----x---------x---x---x---x---|
[|--3----3----------6--6---6--6-5-|--5----5---------8---8---8---8/--|
[|--------------------------------|---------------------------------|



Guitar Solo (1:55)

[  Gtr. 1
[|--0--0-0-0-0--------------------|---------------------------------------|
[|--0--0-0-0-0--------------------|---------------------------------------|
[|--1--1-1-1-1--------------------|---------------------------------------|
[|--2--2-2-2-2-4-4-5--5-5-5-5-7-7-|--8--8-8-8-8-10--11-11-11-11-11-11-x-x-|
[|--2--2-2-2-2-x-x-x--x-x-x-x-x-x-|--x--x-x-x-x-x---x--x--x--x--x--x--x-x-|
[|--0--0-0-0-0-2-2-3--3-3-3-3-5-5-|--6--6-6-6-6-8---9--9--9--9--9--9--x-x-|
[
[  Gtr. 2
[ T.P.---------------------------+ *T.P.------------------------------------|
[|--0---------0---0----------0---|--0--0--0--0--0--0--0--0--0--0--0--0-----|
[|--5---------7---8----------10--|--11-11-11-11-11-11-11-11-11-11-11-11----|
[|-------------------------------|--13-13b13b13b13b13b13b13b13b13b13b13b---|
[|-------------------------------|-----------------------------------------|
[|-------------------------------|-----------------------------------------|
[|-------------------------------|-----------------------------------------|
[                                  |-------------------------------------|
[                                  |*Note: Tremolo pick while gradually  |
[                                  | bending up one and a half steps     |
[                                  |-------------------------------------|
[
[ Gtr. 3
[|--------------------------------|---------------------------------------|
[|--------------------------------|---------------------------------------|
[|--9--9-9-9--9--9---7-7-7-7--7-6-|--6--6-6--6---12-----12-12--12--9---7--|
[|--x--x-x-x--x--x---x-x-x-x--x-x-|--x--x-x--x---x------x--x---x---x---x--|
[|--7--7-7-7--7--7---5-5-5-5--5-4-|--4--4-4--4---10-----10-10--10--7---5--|
[|--------------------------------|---------------------------------------|


[ Gtr. 1
[|--------------------------------|
[|--------------------------------|
[|--------------------------------|
[|--2--2-2-2-2-4-4-5--5-5-5-5-7-7-|
[|--2--2-2-2-2-x-x-x--x-x-x-x-x-x-|
[|--0--0-0-0-0-2-2-3--3-3-3-3-5-5-|
[
[ Gtr. 2
[    1        1         1    1
[|-------12-----------------------|
[|-----------10--10/---8-----6----|
[|--14b------12b-------10b---8b---|
[|--------------------------------|
[|--------------------------------|
[|--------------------------------|
[
[ Gtr. 3
[|--------------------------------|
[|--------------------------------|
[|--7//9-9-9-9--9--9-7-7-7-7--7-6-|
[|--x--x-x-x-x--x--x-x-x-x-x--x-x-|
[|--5//7-7-7-7--7--7-5-5-5-5--5-4-|
[|--------------------------------|

[ Tab from: http://www.guitartabs.cc/tabs/r/radiohead/just_tab_ver_4.html ]
[ Gtr. 1
[|-------------------------------------------|
[|-------------------------------------------|
[|-------------------------------------------|
[|--8--8-8-8-8-10-10-11-11-11-11-11-11-11-11-|
[|--x--x-x-x-x-x--x--x--x--x--x--x--x--x--x--|
[|--6--6-6-6-6-8--8--9--9--9--9--9--9--9--9--|
[
[ Gtr. 2
[   1  1   1   1   1   1   .75 .75 .75 .75
[|-------------------------------------------|
[|--5--5---5---5---5---5---5---5---5---5-----|
[|--7b-7pb-7pb-7pb-7pb-7pr-7pb-7pb-7pb-7b----|
[|-------------------------------------------|
[|-------------------------------------------|
[|-------------------------------------------|
[
[ Gtr. 3
[|-------------------------------------------|
[|-------------------------------------------|
[|--6---6--6--6---12----12--12---12--12--12--|
[|--x---x--x--x---x-----x---x----x---x---x---|
[|--4---4--4--4---10----10--10---10--10--10--|
[|-------------------------------------------|

Interlude (2:06)

[ Gtr. 1 (Acoustic)
[|----------------------------------|-----------------------------------|
[|----------------------------------|-----------------------------------|
[|----------------------------------|-----------------------------------|
[|--10----10--10-9--x-7-7-7-7-7-7---|--10--10--10--x-8-x-6-6-6-6-6-x-x--|
[|--x-----x---x--x--x-x-x-x-x-x-x---|--x---x---x---x-x-x-x-x-x-x-x-x-x--|
[|--8-----8---8--7--x-5-5-5-5-5-5-x-|--8---8---8---x-6-x-4-4-4-4-4-x-x--|
[
[ Gtr. 2 (w/clean tone)
[|----------------------------------|-----------------------------------|
[|----------------------------------|-----------------------------------|
[|--21----21--21-19-x-17-17--17-x-x-|--20----20--20-19-x-17-17--17-15/17|
[|--x-----x---x--x--x-x--x---x--x-x-|--x-----x---x--x--x-x--x---x--x--x-|
[|--19----19--19-17-x-15-15--15-x-x-|--18----18--18-17-x-15-15--15-13/15|
[|----------------------------------|-----------------------------------|
[
[ Gtr. 3 (w/clean tone)
[|----------------------------------|-----------------------------------|
[|----------------------------------|-----------------------------------|
[|--17----17--17-16-x-14-14--14-x-17|--17----17--x-15----13-13--13-12/13|
[|--x-----x---x--x--x-x--x---x--x-x-|--x-----x---x-x-----x--x---x--x--x-|
[|--15----15--15-14-x-12-12--12-x-15|--15----15--x-13----11-11--11-10/11|
[|----------------------------------|-----------------------------------|


[ Gtr. 1
[|--------------------------------------|----------------------------------|
[|--8----8------------------------------|----------------------------------|
[|--8----8----x-x-7-----7-7--7---7------|----------------------------------|
[|--8----8----x-x-8-----8-8--8---8--x-x-|--10----10--10--9-x-7-7-7-7-7-7-x-|
[|--6----6----x-x-8-----8-8--8---8--x-x-|--x-----x---x---x-x-x-x-x-x-x-x-x-|
[|----------------6-----6-6--6---6--x-x-|--8-----8---8---7-x-5-5-5-5-5-5-x-|
[
[ Gtr. 2
[|--------------------------------------|----------------------------------|
[|--------------------------------------|----------------------------------|
[|--15--15-15-x-x-17/19-17--17--17--x-x-|--21----21--21-19-x-17-17--17-x-x-|
[|--x---x--x--x-x-x--x--x---x---x---x-x-|--x-----x---x--x--x-x--x---x--x-x-|
[|--13--13-13-x-x-15/17-15--15--15--x-x-|--19----19--19-17-x-15-15--15-x-x-|
[|--------------------------------------|----------------------------------|
[
[ Gtr. 3
[|--------------------------------------|----------------------------------|
[|--------------------------------------|----------------------------------|
[|--12--12-12-x-x-10/12/10------10--x---|--17----17--17-16-x-14-14--14-x-17|
[|--x---x--x--x-x-----------------------|--x-----x---x--x--x-x--x---x--x-x-|
[|--10--10-10-x-x-----------------------|--15----15--15-14-x-12-12--12-x-15|
[|--------------------------------------|----------------------------------|


[ Gtr. 1
[|----------------------------------|--------------------------|
[|----------------------------------|--------------------------|
[|----------------------------------|--4--4--4--4--3--3--3--3--|
[|--10--10--10--x-8-x-6-6-6-6-6-x-x-|--5--5--5--5--4--4--4--4--|
[|--x---x---x---x-x-x-x-x-x-x-x-x-x-|--5--5--5--5--4--4--4--4--|
[|--8---8---8---x-6-x-4-4-4-4-4-x-x-|--3--3--3--3--2--2--2--2--|
[
[ Gtr. 2
[|----------------------------------|--------------------------|
[|----------------------------------|--------------------------|
[|--20----20--20-19-x-17-17--17-----|--------------------------|
[|--x-----x---x--x--x-x--x---x------|--------------------------|
[|--18----18--18-17-x-15-15--15-----|--------------------------|
[|----------------------------------|--------------------------|
[
[ Gtr. 3                            (w/heavy dist.)
[|----------------------------------|--------------------------|
[|----------------------------------|--------------------------|
[|--17----17--x-15----13-13--13-----|--------------------------|
[|--x-----x---x-x-----x--x---x------|--5--5--5--5--4--4--4--4--|
[|--15----15--x-13----11-11--11-----|--5--5--5--5--4--4--4--4--|
[|----------------------------------|--3--3--3--3--2--2--2--2--|


[ Gtr. 1
[|---------------------------|
[|---------------------------|
[|--2------------------------|
[|--3------------------------|
[|--3------------------------|
[|--1------------------------|
[
[ Gtr. 3
[|---------------------------|
[|---------------------------|
[|---------------------------|
[|--3------------------------|
[|--3------------------------|
[|--1------------------------|
[
[ Gtr. 4         (pick scrape)
[|---------------------------|
[|---------------------------|
[|---------------------------|
[|---------------------------|
[|---------------------------|
[|---------------------x~~~~~|

[(Gtr. 4 continues random pick scrapes)
[
[ Gtr. 1
[|------------------------------|-------------------------------|
[|--1----1----------------------|-------------------------------|
[|--0----0--x-----3-3-3-3-3-----|--2--2--2--2-2---2-2-2-2-2-----|
[|--2----2--x-0-0-4-4-4-4-4-x-x-|--3--3--3--3-3-x-3-3-3-3-3-x-x-|
[|--3----3--x-0-0-4-4-4-4-4-x-x-|--3--3--3--3-3-x-3-3-3-3-3-x-x-|
[|----------------2-2-2-2-2-x-x-|--1--1--1--1-1-x-1-1-1-1-1-x-x-|
[
[ Gtr. 2 (w/ heavy dist.)
[|---------------------0-----0--|-----------------------0-------|
[|------------------------------|---------------------------1---|
[|-------------------------3----|-------------------------------|
[|--10/-----------4-------------|--3----------------------------|
[|--10/-----------4-------------|--3----------------------------|
[|--8/------------2-------------|--1----------------------------|
[
[ Gtr. 3 (w/ heavy dist.)
[|--------------2---------------|-------------------------------|
[|-/5---3---3---1---------------|--3---1---3---1------4---------|
[|-/5---4---4-------------------|--3---2---3---1------3---------|
[|------------------------------|-------------------------------|
[|------------------------------|-------------------------------|
[|------------------------------|-------------------------------|

[                                          You do it to yourself
[ Gtr. 1
[|------------------------------|-------------------------------|
[|--1----1----------------------|-------------------------------|
[|--0----0--x-----3-3-3-3-3-----|--2--2--2--2-2---2-2-2-2-2-----|
[|--2----2--x-0-0-4-4-4-4-4-x-x-|--3--3--3--3-3-x-3-3-3-3-3-x-x-|
[|--3----3--x-0-0-4-4-4-4-4-x-x-|--3--3--3--3-3-x-3-3-3-3-3-x-x-|
[|----------------2-2-2-2-2-x-x-|--1--1--1--1-1-x-1-1-1-1-1-x-x-|
[
[ Gtr. 2
[|---------------------0------0-|-----------------------0-------|
[|------------------------------|---------------------------1---|
[|-------------------------3----|-------------------------------|
[|--10/-----------4-------------|--3----------------------------|
[|--10/-----------4-------------|--3----------------------------|
[|--8/------------2-------------|--1----------------------------|
[
[ Gtr. 3
[|--------------2---------------|-------------------------------|
[|-/5---3---3---1---------------|-/8---6---6---4----------------|
[|-/5---4---4-------------------|-/8---7---7---5----------------|
[|------------------------------|-------------------------------|
[|------------------------------|-------------------------------|
[|------------------------------|-------------------------------|

3rd Chorus (2:36)

[         you do and that's what really hurts 'cause you do it to yourself
[ Gtr. 1
[|------------------------------|-------------------------------|
[|--5--5--5--5-5----------------|-------------------------------|
[|--5--5--5--5-5-x-x-3--3-------|--2--2--2--2-2-2-2-2-2-2-2-----|
[|--5--5--5--5-5-x-x-4--4-------|--3--3--3--3-3-3-3-3-3-3-3-----|
[|--3--3--3--3-3-x-x-4--4-------|--3--3--3--3-3-3-3-3-3-3-3-----|
[|-------------------2--2---0-0-|--1--1--1--1-1-1-1-1-1-1-1-0-0-|
[
[ Gtr. 2
[|---------------------0-----0--|-----------------------0-------|
[|------------------------------|---------------------------1---|
[|-------------------------3----|-------------------------------|
[|--10/-----------4-------------|--3----------------------------|
[|--10/-----------4-------------|--3----------------------------|
[|--8/------------2-------------|--1----------------------------|
[
[ Gtr. 3
[|------------------------------|-------------------------------|
[|------------------------------|-------------------------------|
[|------------------------------|-------------------------------|
[|--10/-----------4---4---4---4-|--3------3------------3--------|
[|--10/-----------4---4---4---4-|--3----------3-------------3/--|
[|--8/------------2---2---2---2-|--1----------------1-----------|

[         just you       You and no one else   You do it to your-
[ Gtr. 1
[|------------------------------|-------------------------------|
[|--5--5--5--5-5----------------|-------------------------------|
[|--5--5--5--5-5-x-x-3--3-------|--2--2--2--2-2-2-2-2-2-2-2-----|
[|--5--5--5--5-5-x-x-4--4-------|--3--3--3--3-3-3-3-3-3-3-3-----|
[|--3--3--3--3-3-x-x-4--4-------|--3--3--3--3-3-3-3-3-3-3-3-----|
[|-------------------2--2---0-0-|--1--1--1--1-1-1-1-1-1-1-1-0-0-|
[
[ Gtr. 2
[|---------------------0------0-|-----------------------0-------|
[|------------------------------|---------------------------1---|
[|-------------------------3----|-------------------------------|
[|--10/-----------4-------------|--3----------------------------|
[|--10/-----------4-------------|--3----------------------------|
[|--8/------------2-------------|--1----------------------------|
[
[ Gtr. 3
[|------------------------------|-------------------------------|
[|------------------------------|-------------------------------|
[|------------------------------|-------------------------------|
[|--10/-----------4---4---4---4-|--3--3--3--3---3-3-3-3-3-3--3--|
[|--10/-----------4---4---4---4-|--3--3--3--3---3-3-3-3-3-3--3--|
[|--8/------------2---2---2---2-|--1--1--1--1---1-1-1-1-1-1--1--|

[                                 -self              You do it to your-
[ Gtr. 1
[|--------------------------------|------------------------------------|
[|--1--1-1-1-1-1-1-8--8-8-8-8-8-8-|--7--7--7-7-10---10-10-10-10-10-----|
[|--0--0-0-0-0-0-0-8--8-8-8-8-8-8-|--7--7--7-7-10---10-10-10-10-10-----|
[|--2--2-2-2-2-2-2-8--8-8-8-8-8-8-|--7--7--7-7-10---10-10-10-10-10-----|
[|--3--3-3-3-3-3-3-6--6-6-6-6-6-6-|--5--5--5-5-8----8--8--8--8--8--0-0-|
[|--------------------------------|------------------------------------|
[
[ Gtr. 2
[  T.P.-----------------------------------------------------------------|
[|--------------------------------|-------------------------------7-----|
[|--------------------------------|-------------------------------x-----|
[|--5-----------7---8---------10--|--11--------13---14------------4-----|
[|--x-----------x---x---------x---|--x---------x----x-------------------|
[|--3-----------5---6---------8---|--9---------11---12------------------|
[|--------------------------------|-------------------------------------|
[
[ Gtr. 3
[|--------------------------------|-----------------------------------|
[|--------------------------------|-----------------------------------|
[|--5----5----------8--8---8--8-7-|--7----7---------10--10---10---10/-|
[|--x----x----------x--x---x--x-x-|--x----x---------x---x----x----x---|
[|--3----3----------6--6---6--6-5-|--5----5---------8---8----8----8/--|
[|--------------------------------|-----------------------------------|

[                                      -self                   Ow
[ Gtr. 1
[|--------------------------------|------------------------------------|
[|--1--1-1-1-1-1-1-8--8-8-8-8-8-8-|--7--7--7-7-10---10-10-10-10-10-----|
[|--0--0-0-0-0-0-0-8--8-8-8-8-8-8-|--7--7--7-7-10---10-10-10-10-10-----|
[|--2--2-2-2-2-2-2-8--8-8-8-8-8-8-|--7--7--7-7-10---10-10-10-10-10-----|
[|--3--3-3-3-3-3-3-6--6-6-6-6-6-6-|--5--5--5-5-8----8--8--8--8--8--0-0-|
[|--------------------------------|------------------------------------|
[
[ Gtr. 2
[  T.P.---------------------------------------------------------------+
[                                                             *P.S.---+
[|--8----------10--11---------13--|--14--------16---17-----------------|
[|--x----------x---x----------x---|--x---------x----x------------------|
[|--5----------7---8----------10--|--11--------13---14----------4------|
[|--------------------------------|-----------------------------x------|
[|--------------------------------|-----------------------------2------|
[|--------------------------------|------------------------------------|
[
[                                 |-------------------------------------|
[                                 |*Note: Johnny (Gtr. 2) activates his |
[                                 | Digitech Whammy to raise pitch two  |
[                                 | octaves higher; continue tremolo    |
[                                 | picking.                            |
[                                 |-------------------------------------|
[
[ Gtr. 3
[|--------------------------------|------------------------------------|
[|--------------------------------|------------------------------------|
[|--5----5----------8--8---8--8-7-|--7----7---------10--10--10--10/----|
[|--x----x----------x--x---x--x-x-|--x----x---------x---x---x---x------|
[|--3----3----------6--6---6--6-5-|--5----5---------8---8---8---8/-----|
[|--------------------------------|------------------------------------|

[ Gtr. 1
[|--------------------------------|------------------------------------|
[|--1--1-1-1-1-1-1-8--8-8-8-8-8-8-|--7--7--7-7-10---10-10-10-10-10-----|
[|--0--0-0-0-0-0-0-8--8-8-8-8-8-8-|--7--7--7-7-10---10-10-10-10-10-----|
[|--2--2-2-2-2-2-2-8--8-8-8-8-8-8-|--7--7--7-7-10---10-10-10-10-10-----|
[|--3--3-3-3-3-3-3-6--6-6-6-6-6-6-|--5--5--5-5-8----8--8--8--8--8--0-0-|
[|--------------------------------|------------------------------------|
[
[ Gtr. 2
[  T.P.------------------------------------------------------------------|
[  P.S.------------------------------------------------------------------|
[|--------------------------------|--------------------------------7-----|
[|--------------------------------|--------------------------------x-----|
[|--5-----------7---8---------10--|--11--------13---14-------------4-----|
[|--x-----------x---x---------x---|--x---------x----x--------------------|
[|--3-----------5---6---------8---|--9---------11---12-------------------|
[|--------------------------------|--------------------------------------|
[
[ Gtr. 3
[|--------------------------------|------------------------------------|
[|--------------------------------|------------------------------------|
[|--5----5----------8--8---8--8-7-|--7----7---------10---10---10---10/-|
[|--x----x----------x--x---x--x-x-|--x----x---------x----x----x----x---|
[|--3----3----------6--6---6--6-5-|--5----5---------8----8----8----8/--|
[|--------------------------------|------------------------------------|


[ Gtr. 1
[|--------------------------------|------------------------------------|
[|--1--1-1-1-1-1-1-8--8-8-8-8-8-8-|--7--7--7-7-10---10-10-10-10-10-----|
[|--0--0-0-0-0-0-0-8--8-8-8-8-8-8-|--7--7--7-7-10---10-10-10-10-10-----|
[|--2--2-2-2-2-2-2-8--8-8-8-8-8-8-|--7--7--7-7-10---10-10-10-10-10-----|
[|--3--3-3-3-3-3-3-6--6-6-6-6-6-6-|--5--5--5-5-8----8--8--8--8--8--0-0-|
[|--------------------------------|------------------------------------|
[
[  Gtr. 2
[  T.P.------------------------------------------------------------------|
[  P.S.------------------------------------------------------------------|
[|--8----------10--11---------13--|--14--------16---17-------19----------|
[|--x----------x---x----------x---|--x---------x----x--------x-----------|
[|--5----------7---8----------10--|--11--------13---14-------17----------|
[|--------------------------------|--------------------------------------|
[|--------------------------------|--------------------------------------|
[|--------------------------------|--------------------------------------|
[
[  Gtr. 3
[|--------------------------------|------------------------------------|
[|--------------------------------|------------------------------------|
[|--5----5----------8--8---8--8-7-|--7----7---------10--10--10--10/----|
[|--x----x----------x--x---x--x-x-|--x----x---------x---x---x---x------|
[|--3----3----------6--6---6--6-5-|--5----5---------8---8---8---8/-----|
[|--------------------------------|------------------------------------|


[ Gtr. 1
[|------------------------------------|
[|------------------------------------|
[|------------------------------------|
[|--10--10--10--10-10-x-8-8-8-8-8-8-7-|
[|--x---x---x---x--x--x-x-x-x-x-x-x-x-|
[|--8---8---8---8--8--x-6-6-6-6-6-6-5-|
[
[ Gtr. 2
[ P.S.----------------------------------|
[|--------------------------------------|
[|--------------------------------------|
[|--17~~~~~~~~~~~~~~~~~~~~~~~~~~~~~-----|
[|--------------------------------------|
[|--------------------------------------|
[|--------------------------------------|


[ Gtr. 1
[|-------------------------------|-------------------------------------|
[|-------------------------------|-------------------------------------|
[|-----------------8-8-8-8-8-x---|-------------------------------------|
[|--7--7--7--7-7-x-x-x-x-x-x-x---|--8/10-10--10--10-10-x-8-8-8-8-8-8-7-|
[|--x--x--x--x-x-x-6-6-6-6-6-x-0-|--x----x---x---x--x--x-x-x-x-x-x-x-x-|
[|--5--5--5--5-5-x---------------|--6/8--8---8---8--8--x-6-6-6-6-6-6-5-|
[
[ Gtr. 2                          (crazy feedback caused by whammy pedal)
[|-------------------------------|-------------------------------------|
[|-------------------------------|-------------------------------------|
[|--(17)~~~~~~~~~~~~~~~~~~~~~~~~~~~~~~~~~~~~~~~~~~~~~~~~~~~~~~~~~~~~~--|
[|-------------------------------|-------------------------------------|
[|-------------------------------|-------------------------------------|
[|-------------------------------|-------------------------------------|


[ Gtr. 1
[|-------------------------------|-------------------------------------|
[|-------------------------------|-------------------------------------|
[|-----------------8-x-8-x-8-8---|-------------------------------------|
[|--7--7--7--7-7-x-x-x-x-x-x-x---|--8/10-10--10--10-10-x-8-8-8-8-8-x-7-|
[|--x--x--x--x-x-x-6-x-6-x-6-6-0-|--x----x---x---x--x--x-x-x-x-x-x-x-x-|
[|--5--5--5--5-5-x---------------|--6/8--8---8---8--8--x-6-6-6-6-6-x-5-|
[
[ Gtr. 2
[       *
[|-------------------------------|-------------------------------------|
[|-------------------------------|-------------------------------------|
[|-(17)--------------------------|-------------------------------------|
[|-------------------------------|-------------------------------------|
[|-------------------------------|-------------------------------------|
[|-----14b-----------------------|-------------------------------------|
[
[ |-----------------------------------|
[ |*Note: Turn Whammy off on this note|
[ |-----------------------------------|
[
[ Gtr. 3 (w/clean tone)
[|-------------------------------|-------------------------------------|
[|----4-------4------------------|-------------------------------------|
[|--x-3-x--x--3------------------|---------------------------------x-x-|
[|--x-2-x--x--2------------------|---------------------------------x-x-|
[|--x---x--x--3------------------|---------------------------------x-x-|
[|-------------------------------|-------------------------------------|

[ Gtr. 2 (w/ dist.)
[|-------------------------------|-------------------------------------|
[|-------------------------------|-------------------------------------|
[|-------------------------------|-----8--8---8--8---8---8-8---8-8---8-|
[|-------------------------------|-------------------------------------|
[|-------------------------------|-------------------------------------|
[|-------------------------------|-------------------------------------|
[
[ Gtr. 1
[|-------------------------------|-------------------------------------|
[|-------------------------------|-------------------------------------|
[|-----------------8-8-8-8-8-8---|-------------------------------------|
[|--7--7--7--7-7-x-x-x-x-x-x-x---|--8/10-10--10--10-10-x-8-8-8-8-8-----|
[|--x--x--x--x-x-x-6-6-6-6-6-6-0-|--x----x---x---x--x--x-x-x-x-x-x-0-0-|
[|--5--5--5--5-5-x---------------|--6/8--8---8---8--8--x-6-6-6-6-6-0-0-|
[
[ Gtr. 3
[|-------------------------------|-------------------------------------|
[|----4-------4------------------|-------------------------------------|
[|--x-3-x--x--3------------------|-------------------------------------|
[|--x-2-x--x--2------------------|-------------------------------------|
[|--x-3-x--x--3------------------|-------------------------------------|
[|-------------------------------|-------------------------------------|


[ Gtr. 2                               1           1           1
[|------------------------------|---------------------------------|
[|------------------------------|---------------------------------|
[|---8-8--8-8--8--8-8-8-8-8-8-8-|--8h5-5-----5-8h5-------5-8h5-5--|
[|-------------7--7-7-7-7-7-7-7-|------8b----------8b----------8b-|
[|------------------------------|---------------------------------|
[|------------------------------|---------------------------------|
[
[ Gtr. 1
[ *T.P.-------------------------------------------------------------|
[|------------------------------|-----------------------------------|
[|------------------------------|--5--5--5---5-5----8-8-8-8-8-8-7---|
[|------------------------------|--5--5--5---5-5--x-8-8-8-8-8-8-7---|
[|--3/------------7-------------|--5--5--5---5-5--x-8-8-8-8-8-8-7---|
[|--3/------------7-------------|--3--3--3---3-3--x-6-6-6-6-6-6-5---|
[|--1/------------5-------------|-----------------------------------|
[
[ Gtr. 3 (w/heavy dist.)
[|------------------------------|---------------------------------|
[|------------------------------|---------------------------------|
[|------------------------------|---------------------------------|
[|------------------------------|--10-10-10-10-10-x-8-8-8-8-8-8-7-|
[|------------------------------|--x--x--x--x--x--x-x-x-x-x-x-x-x-|
[|------------------------------|--8--8--8--8--8--x-6-6-6-6-6-6-5-|
[
[ |-------------------------------------------|
[ |*Note: Gtr.1 tremolo picks while sliding up|
[ | to the next chord.                        |
[ |-------------------------------------------|


[ Gtr. 2    1      1      1                1            1            1
[|---------------8pbr-6-------------|-----------------------------------|
[|----------------------8pbr-6------|-----------------------------------|
[|----5-8h5----x---------------8--5-|--8h5--------x-8h5-5------5-8h5----|
[|----------8b----------------------|------8b-----------8b-----------8b-|
[|----------------------------------|-----------------------------------|
[|----------------------------------|-----------------------------------|
[
[ Gtr. 1
[|----------------------------------|-----------------------------------|
[|--7--7--7--7-7---10---10---10-----|--5---5---5---5--5---8-8-8-8-8-8-7-|
[|--7--7--7--7-7-x-10-x-10-x-10-x---|--5---5---5---5--5-x-8-8-8-8-8-8-7-|
[|--7--7--7--7-7-x-10-x-10-x-10-x---|--5---5---5---5--5-x-8-8-8-8-8-8-7-|
[|--5--5--5--5-5-x-8--x-8--x-8--x-0-|--3---3---3---3--3-x-6-6-6-6-6-6-5-|
[|----------------------------------|-----------------------------------|
[
[ Gtr. 3
[|----------------------------------|-----------------------------------|
[|----------------------------------|-----------------------------------|
[|-----------------8--8-8--8-8--x---|-----------------------------------|
[|--7--7--7--7-7-x-x--x-x--x-x--x---|--8/10-10-10-10-10-x-8-8-8-8-8-8-7-|
[|--x--x--x--x-x-x-6--6-6--6-6--x-0-|--x----x--x--x--x--x-x-x-x-x-x-x-x-|
[|--5--5--5--5-5-x------------------|--6/8--8--8--8--8--x-6-6-6-6-6-6-5-|


[ Gtr. 2   1  .25.25.25.25.25.25.25.25.25.25       1            1            1
[|------------------------------------------|-----------------------------------|
[|------------7--7--7--7--7--7--7--7--7--7--|-----------------------------------|
[|---5-8h5----10b10b10b10b10b10b10b10b10b10b|--8h5----------8h5--------8-8h5----|
[|---------8b-------------------------------|------8b-------0---8b-----------8b-|
[|------------------------------------------|-----------------------------------|
[|------------------------------------------|------------x----------x-----------|
[
[ Gtr. 1
[|------------------------------------------|-----------------------------------|
[|--7--7--7--7-7-----10-----10-----10-------|--5---5---5---5--5---8-8-8-8-8-8-7-|
[|--7--7--7--7-7--x--10--x--10--x--10--x----|--5---5---5---5--5-x-8-8-8-8-8-8-7-|
[|--7--7--7--7-7--x--10--x--10--x--10--x----|--5---5---5---5--5-x-8-8-8-8-8-8-7-|
[|--5--5--5--5-5--x--8---x--8---x--8---x--0-|--3---3---3---3--3-x-6-6-6-6-6-6-5-|
[|------------------------------------------|-----------------------------------|
[
[ Gtr. 3
[|------------------------------------------|-----------------------------------|
[|------------------------------------------|-----------------------------------|
[|-------------------8---8--8---8--8---x----|-----------------------------------|
[|--7--7--7--7-7--x--x---x--x---x--x---x----|--8/10-10-10-10-10-x-8-8-8-8-8-8-7-|
[|--x--x--x--x-x--x--6---6--6---6--6---x--0-|--x----x--x--x--x--x-x-x-x-x-x-x-x-|
[|--5--5--5--5-5--x-------------------------|--6/8--8--8--8--8--x-6-6-6-6-6-6-5-|


[ Gtr. 2           1     1.5               1            1             1
[|-----------------8pb-6------------|-----------------------------------|
[|-----5-----------------8pbr-6-----|-----------------------------------|
[|-----5--8h5----x--------------8-5-|--8h5----------8h5--------5-8h5----|
[|------------8---------------------|------8b-----------8b-----------8br|
[|----------------------------------|-----------------------------------|
[|--x-------------------------------|-----------------------------------|
[
[ Gtr. 1
[|----------------------------------|-----------------------------------|
[|--7--7--7--7-7---10---10---10-----|--5---5---5----------8-8-8-8-8-8-7-|
[|--7--7--7--7-7-x-10-x-10-x-10-x---|--5---5---5----x-x-x-8-8-8-8-8-8-7-|
[|--7--7--7--7-7-x-10-x-10-x-10-x---|--5---5---5----x-x-x-8-8-8-8-8-8-7-|
[|--5--5--5--5-5-x-8--x-8--x-8--x-0-|--3---3---3----x-x-x-6-6-6-6-6-6-5-|
[|----------------------------------|---------------------------------5-|
[
[ Gtr. 3
[|----------------------------------|-----------------------------------|
[|----------------------------------|-----------------------------------|
[|-----------------8--8-8--8-8--x---|-----------------------------------|
[|--7--7--7--7-7-x-x--x-x--x-x--x---|--8/10-10-10-10-10-x-8-8-8-8-8-8-7-|
[|--x--x--x--x-x-x-6--6-6--6-6--x-0-|--x----x--x--x--x--x-x-x-x-x-x-x-x-|
[|--5--5--5--5-5-x------------------|--6/8--8--8--8--8--x-6-6-6-6-6-6-5-|


[ Gtr. 2
[|-------------------||
[|-------------------||
[|-------------------||
[|-(8)---------------||
[|-------------------||
[|------0------------||
[
[ Gtr. 1
[|-------------------||
[|--7/---------------||
[|--7/---------------||
[|--7/---------------||
[|--5/---------------||
[|--5/---------------||
[
[ Gtr. 3
[|-------------------||
[|-------------------||
[|-------------------||
[|--7/---------------||
[|--x----------------||
[|--5/---------------||
Comments