Radiohead - Just Chords & Tabs

 

Just Chords & Tabs

Radiohead Chords & Tabs

Version: 3 Type: Bass Tab 0 ratings
1 star 2 stars 3 stars 4 stars 5 stars
comments

Just Bass Tab

Radiohead
"Just" 

Key Cm or D#maj
The first measure is Thom alone on acoustic then the bass kicks in
Author: Adam Lutz

"/" = slide up 
"\" = slide down

*NOTE* The parts listed below do not always follow in this exact order.  You need to listen to the recording to get the exact progression down.

Intro
G |---------|---------|---------|---------|
D |---------|---------|---------|---------|
A |---------|---------|--333333-|-56666(3)|
E |--3-3----|-56-6666-|(5)------|---------|


Verse - the verse can basically be broken down into three unique parts:

I.
G |---------|---------|---------|---------|
D |---------|---------|---------|---------|
A |---------|---------|-656--8--10--12\---|
E |-5--5--5-|-4--4--4-|---------|---------|


II.
G |---------|---------|---------|---------|
D |---------|---------|---------|---------|
A |---------|---------|-656--8--10---8\---|
E |-5--5--5-|-4--4--4-|---------|---------|

[ Tab from: http://www.guitartabs.cc/tabs/r/radiohead/just_btab_ver_3.html ]
III.
G |---------|---------|---------|---------|
D |---------|---------|---------|---------|
A |---------|--56865--|---------|--35635--|
E |---5-7---|---------|---4-5---|---------|


III (b).  - last part of verse, heading to pre-chorus


G |---------|--------|---------|
D |--5-7-5--|--4-6-4-|--3------| (to prechorus)
A |---------|--------|---------|
E |---------|--------|---------|

Pre-Chorus x2
G |---------|--------|
D |---------|-------|
A |---------|-------|
E |--888866655----|

Chorus
G |---------|---------|---------|---------|
D |---------|---------|---------|---------|
A |---------|---------|--333333-|-56666(3)|
E |--3-3----|-56-6666-|(5)------|---------|


Then every once in a while, the prechorus varies to this.

G |---------|--------|
D |---------|-------|
A |---------|-------|
E |--888866655--/-11-11-8-11-11-8-8-11\-| (something to that effect)

Please email me if you have any questions amlutz@csbsju.edu
Comments