Radiohead - Idioteque Chords & Tabs

 

Idioteque Chords & Tabs

Radiohead Chords & Tabs

Version: 2 Type: Tab

Idioteque Tab

After searching the web for "DECENT" versions of the keybourd part on guitar, and 
all of them were wrong, I thought I'd submit a few pieces, for a band whith one guitarist, I 
recomend this part I wrote..

E-3----------------------------|
A-6-------6--------------------|
D---------5-------5------------|
G-----------------3-------8----|
B-------------------------8----|
E------------------------------|

I play it whith Hall Reverb and a volume pedal to fade in and out.

this next one it for a band whith two guitars

GUITAR 1
E-3-------6---------------6----|
A-5-------6-------5-------x----|
D-5-------5-------5-------8----|
G-----------------3-------0----|
B------------------------------|
E------------------------------|
[ Tab from: http://www.guitartabs.cc/tabs/r/radiohead/idioteque_tab_ver_2.html ]
GUITAR 2
E------------------------------|
A-6-------10------13------6----|
D-8-------12------15------8----|
G-8-------12------15------8----|
B-------------------------8----|
E-------------------------6----|

and the next for the extreme techno cover band whith 3 guitars (or 2 and bass)


guitar 1
E-3-----6------------6------|
A-5-----6-----5------x------|
D-5-----5-----5------8------|
G-------------3------0------|
B---------------------------|
E---------------------------|


E------------------------|
A-6----10----13------6---|
D-8----12----15------8---|
G-8----12----15------8---|
B--------------------8---|
E--------------------6---|

E----------------------------|
A----------------------------|
D----------------------------|
G--8-----7----15-------------|
B----------------------------|
E-11----10---18-----22~------|

lots of alternatives, I figure you just gotta choose which of the tabs you find you like best.

(or just learn keybourd)

Drue
contact me at bullram13@hotmail.com