Radiohead - Identikit Chords & Tabs

 

Identikit Chords & Tabs

Radiohead Chords & Tabs

Version: 1 Type: Bass Tab 0 ratings
1 star 2 stars 3 stars 4 stars 5 stars
comments

Identikit Bass Tab

-----------------------------------------------------------------------------
                           Identikit - Radiohead
-----------------------------------------------------------------------------
Tabbed by: Etienne049
email: pope777@comcast.net

Standard tuning

I used Radiohead's 2012 Austin City Limits live performance for this (which
ironically can't be found on youtube any longer for some reason). However, I
still recommend you listen to any of the other performances while playing 
this to get the timing right. The ad lib will be slightly different, but 
this version still works.



Bass comes in at "Broken hearts make it rain..."


G|---------8-8-9-11---------8-8-9-11-------------8-8-9-11-|
D|-9-9-9-9----------7-7-7-7-------------------------------|
A|-----------------------------------10-10-10-10----------|
E|--------------------------------------------------------|


G|---------8-8-9-11---------9-9-11-12---------9-9-11-12---|
D|--------------------------------------------------------|
A|-9-9-9-9----------7-7-7-7-----------7-7-7-7-------------|
E|--------------------------------------------------------|


G|---------8-8-9-11---------8-8-9-11-------------8-8-9-11-|
D|-9-9-9-9----------7-7-7-7-------------------------------|
A|-----------------------------------10-10-10-10----------|
E|--------------------------------------------------------|


G|---------8-8-9-11---------9-9-11-12-----9-9-11-11-11----|
D|--------------------------------------------------------|
A|-9-9-9-9----------7-7-7-7-----------7-7-----------------|
E|--------------------------------------------------------|

G|-------------------------------------------------------------|
D|-9~---------------------------------9-----9-----9-----9------|
A|-------------------------------------------------------------|
E|-------------------------------------------------------------|



Shifts to Johnny on synthesizer


G|---------------------------------------------3--------------------------|
D|---------------------6--------------------------------------------------|
A|-8--8----8--8------------6--6----6--6------------4--4----4--4------4--6-|
E|------------------------------------------------------------------------|


G|---------------------------------------------------------------------3--|
D|---------------------6-----------------------6--------------------------|
A|-3--3----3--3------6---6-8--8----6-8-8---------8-6--6----6-6-6----------|
E|------------------------------------------------------------------------|
[ Tab from: http://www.guitartabs.cc/tabs/r/radiohead/identikit_btab.html ]
G|------------------------------------------------|
D|------------------------------------------------|
A|-4--4----4-4-4-----4-----3--3--------3-----6----|
E|------------------------------------------------|




Vocals come back with "Pieces of a wreck..."


G|------------------------------------------------------------------------|
D|-------------------6-----------------------6-------------------------6--|
A|-8-------6-7-8-----------6--6----6-6-6-------8---4--4------4-4---------4|
E|------------------------------------------------------------------------|


G|-------------------------------------------------------------8--7-6-5-|
D|---------------------6---------------------6--------------------------|
A|-3--3--------6-----6-----8--8----6-7-8-----------6--6-----------------|
E|----------------------------------------------------------------------|


G|--------------------------------------------------------------------------|
D|-------------------------------------------------6-------------------6---8|
A|---4--4------3-4-----------3--3--------6-----------8--8------7-8----------|
E|-------------------------------------8------------------------------------|


G|-------------8----6-5----------------------------------------------------|
D|-----------------------------------------------------------------------6-|
A|-6--6-----6--------------4--4------3-4---3-4---6-3--3--3-3-3-3-6-----6---|
E|-------------------------------------------------------------------8-----|


G|--------------------------------------------------------------------------|
D|---------------------6----------------------6--8--------------------------|
A|-8---------6-8-----6---6----------6---------------4--4--------------4---6-|
E|---------8-------8--------------------------------------------------------|


G|-------------------------------------------------------------8----6-5----|
D|----------------------6---------------------6--8-------------------------|
A|-3--3----------6----6----8--8------7-8-----------6--6-------------------6|
E|-------------------------------------------------------------------------|


G|------------------------------------------------------------------------|
D|----------------------------------------------6--------------------6---8|
A|-4--4----4-4-4---3-4---6-------------6-----------8--8----6-8-8----------|
E|-------------------------3--3------8------------------------------------|


G|-------------------------------------------------------------------------|
D|-----------------8-6--------------------------------------------------6--|
A|-6--6------6-6-------8-6-4--4------4-4---3-4--4-6-3-3------3--------3----|
E|-------------------------------------------------------------------------|


G|-------|
D|-------|
A|-8~----|
E|-------|

=============================================================================
Comments