Radiohead - I Will Chords & Tabs

 

I Will Chords & Tabs

Radiohead Chords & Tabs

Version: 2 Type: Tab 0 ratings
1 star 2 stars 3 stars 4 stars 5 stars
comments

I Will Tab

   
"I Will"
Radiohead
from "Hail to the Thief"
tabbed by arlen b, 04/06/03
website: http://www.geocities.com/kingoftheeskimos

standard tuning

chords used:
  G#   C#m   A    F#  F#m   E  G#sus4
e--4----4----5----2----2----0----4-------------------------------------
B--4----5----5----2----2----0----4-------------------------------------
G--5----6----6----3----2----1----6-------------------------------------
D--6----6----7----4----4----2----6-------------------------------------
A--6----4----7----4----4----2----6-------------------------------------
E--4---------5----2----2----0----4-------------------------------------

intro: G#  C#m  A  G#sus4/G#
[ Tab from: http://www.guitartabs.cc/tabs/r/radiohead/i_will_tab_ver_2.html ]
verse (approximate picking pattern):
   C#m              A              G#sus4/G#
e------4------4---4--------------------------4-------------------------
B------5------5---5-----5-----5----------4---4---4-----4---------------
G------6------6---6-----6-----6------6-5---5-----5-----5---------------
D------6------6---6-----7-----7------------6-----6-----6---------------
A--4-4----4-4---4-------7-----7------------------6-----6---------------
E-------------------5-5---5-5------4-----------4---4-4-----------------
i will lay me down
in a bunker underground... and so on

outro:
A      F#m     G#    E     F#    G#
little babies' eyes, eyes, eyes, eyes

end on A C#m
Comments