Radiohead - Hunting Bears Chords & Tabs

 

Hunting Bears Chords & Tabs

Radiohead Chords & Tabs

Version: 5 Type: Tab 0 ratings
1 star 2 stars 3 stars 4 stars 5 stars
comments

Hunting Bears Tab

This is the tab for "hunting bears"

Legend
====
==== - Rub strings with picking
====   hand over pick-ups.(the sleeve of your arm
====   usually sounds best)

E-------------====---------------====-----------==---
B-------------====---------------====-----------==---
G---------5/7-====-------5/7p5---====-------5/7-==---
D---0-5h7-0---====-0-5h7-0-----7-====-0-5h7-0---==---
A---5-5-------====-5-5---------5-====-5-5-------==---
E-------------====---------------====-----------==---
[ Tab from: http://www.guitartabs.cc/tabs/r/radiohead/hunting_bears_tab_ver_5.html ]
E----------------------------------------------------
B--------------------10--------------------10p8-10-8-
G-------5/7p5---9-10----------------7h9h10------0--0-
D-0-5h7-0-----7-0-0-----0-----<7>-0------------------
A-5-5---------5-----------<7>------------------------
E----------------------------------------------------
                x2
E------------------ | ------- |
B------10-----10--- | ------- |
G---10------9------ | ------- |
D-0-------0------0- | -0-5h7- |
A------------------ | -5-5--- |
E------------------ | ------- |

have fun, and keep listen to radiohead  // wickoo
Comments