Radiohead - High And Dry Chords & Tabs

 

High And Dry Chords & Tabs

Radiohead Chords & Tabs

Version: 3 Type: Tab 0 ratings
1 star 2 stars 3 stars 4 stars 5 stars
comments

High And Dry Tab

   
Artist: Radiohead
Song: High and Dry
Album: The bends
Tabbed by: Wiktor banck
Date: 03/11/06

There is really 2 or 3 guitars in this song i think but you can manage it
with one minus the solo thing of course. so here it is my version of High
+ Dry witch in my opinion is the best radiohead song. Lyrics i dont no
he mumbles away make up yuor one they will probably sound even better

Key________________
|~ = vibratum      |
|s = slide         |
|<-> = harmonic    |
|__________________|

intro: x2

e|--4-4-4-4--s--2-2-2-2-2-2--4-4-4-4--0-0-0-0-0-0---
b|--0-0-0-0--s--0-0-0-0-0-0--0-0-0-0--0-0-0-0-0-0---
g|--x-x-x-x--s--x-x-x-x-x-x--x-x-x-x--x-x-x-x-x-x---
d|--6-6-6-6--s--4-4-4-4-4-4--6-6-6-6--2-2-2-2-2-2---
a|--------------------------------------------------
E|--------------------------------------------------

e|-----0-0-0-0-0-0-0----0-0-0-0-0-0-0---------------
b|-----0-0-0-0-0-0-0----0-0-0-0-0-0-0---------------
g|-----1-1-1-1-1-1-1----1-1-1-1-1-1-1---------------
d|-----2-2-2-2-2-2-2----2-2-2-2-2-2-2---------------
a|--------------------------------------------------
E|--0-----------------0-----------------------------

verse:
    F                      A
e|--------------------------------------------------
b|-------------------------2-2-2-2-2-2-2-2----------
g|--2-2-2-2-2-2-2-2--------2-2-2-2-2-2-2-2----------
d|--4-4-4-4-4-4-4-4--------2-2-2-2-2-2-2-2----------
a|--4-4-4-4-4-4-4-4---------------------------------
E|--2-2-2-2-2-2-2-2---------------------------------

    E
e|--------------------------------------------------
b|--------------------------------------------------
g|--1-1-1-1-1-1-1-1-----1-1-1-1-1-1-1-1-------------
d|--2-2-2-2-2-2-2-2-----2-2-2-2-2-2-2-2-------------
a|--2-2-2-2-2-2-2-2-----2-2-2-2-2-2-2-2-------------
E|-------------------0------------------------------

In the second and third bar a change on E chord

    E
e|--------------------------------------------------
b|--------------------------------------------------
g|--1-1-1-1-1--2-2-2-2-2-2-2-2-2--1-1-1-1-1-1-1-----
d|--2-2-2-2-2--2-2-2-2-2-2-2-2-2--2-2-2-2-2-2-2-----
a|--2-2-2-2-2--2-2-2-2-2-2-2-2-2--2-2-2-2-2-2-2-----
E|--------------------------------------------------
[ Tab from: http://www.guitartabs.cc/tabs/r/radiohead/high_and_dry_tab_ver_3.html ]
chorus : x2    "D'ont leave me higggghhhhh"
    F                  A
e|--------------------------------------------------
b|--------------------------------------------------
g|--------------------------------------------------
d|--4-4-4-4-4-4-4-4-4---7-7-7-7-7-7-7-7-7-----------
a|--4-4-4-4-4-4-4-4-4---7-7-7-7-7-7-7-7-7-----------
E|--2-2-2-2-2-2-2-2-2---5-5-5-5-5-5-5-5-5-----------

    E
e|--------------------------------------------------
b|--------------------------------------------------
g|--9-9-9-9-9-9-9-9-9-9-----------------------------
d|--9-9-9-9-9-9-9-9-9-9--Back into intro x1. then---
a|--7-7-7-7-7-7-7-7-7-7----------------------chorus-
E|--------------------------------------------------

Solo or Fill if you like (no. 1)
e|--------------------------------------------------
b|--------------------------------------------------
g|--9-9-8-9-9-8-9-9--8--9-s-11-9-8-8--9-9-8-9--9----
d|--------------------------------------------------
a|--------------------------------------------------
E|--------------------------------------------------

e|--------------------------------------------------
b|--6-4-4-6-4-4-6-s-up into it again----------------
g|--------------------------------------------------
d|--------------------------------------------------
a|--------------------------------------------------
E|--------------------------------------------------

bit after solo bit
e|-------------------<12>---------------------------
b|--------2-2--------<12>--------2-2----------------
g|--2-2---2-2--1-1---------2-2---2-2---1-1----------
d|--4-4---2-2--2-2---------4-4---2-2---2-2----------
a|--4-4--------2-2---------4-4---------2-2----------
E|--------------------------------------------------

e|--------------------------------------------------
b|--------------------------------------------------
g|-1-1-1-1-2-2-2-2-2-2-2-1-1-1-1-1-1-1---now--------
d|-2-2-2-2-2-2-2-2-2-2-2-2-2-2-2-2-2-2--chorus------
a|-2-2-2-2-2-2-2-2-2-2-2-2-2-2-2-2-2-2--------------
E|--------------------------------------------------

after chorus + solo/fill no.1 then solo/fill no. 2
e|--------------------------------------------------
b|--10-10-9-10-7-5--10-10-9-10-7-5---9-9-8-9-9-9----
g|--------------------------------------------------
d|--------------------------------------------------
a|--------------------------------------------------
E|--------------------------------------------------

e|--------------------------------------------------
b|--7-5-5-7-5-5-7---10-10-9-10-10-7--5-s-7~--or end-
g|-------------------------------------------on--E--
d|-------------------------------------------chord--
a|--------------------------------------------------
E|--------------------------------------------------
Comments