Radiohead - Everything In Its Right Place Chords & Tabs

 

Everything In Its Right Place Chords & Tabs

Radiohead Chords & Tabs

Version: 1 Type: Tab 0 ratings
1 star 2 stars 3 stars 4 stars 5 stars
comments

Everything In Its Right Place Tab

   
#----------------------------------PLEASE NOTE---------------------------------#
#This file is the author's own work and represents their interpretation of the #
#song. You may only use this file for private study, scholarship, or research. #
#------------------------------------------------------------------------------#

EVERYTHING IN ITS RIGHT PLACE
As recorded by Radiohead
(From the 2000 Album KID A)


Transcribed by kurtfender84 nobbru@libero.it

 Words by Thom Yorke Music by Thom Yorke, Ed O'Brien, Colin Greenwood,
Johnny Greenwood, Phil Selway
 Arranged by Radiohead
 

C
x 3 2 5 x x C#maj7
x 4 3 5 x x Ebadd6
x 6 5 5 x x F
x 8 7 5 x x 
C5
x 3 5 5 x x Fm/C#
9 8 6 x x x Cmadd11/Eb
x 6 3 5 x x Gm/Eb
11 10 8 x x x 
Em/C
8 7 5 x x x 


Gtr I (E A D G B E) - 'Johnny Greenwood (Keyboard)'


 Intro
  Q=124
            C           C#maj7     Ebadd6
 2/4       4/4             6/4
  Gtr I
|---------|---------------|------------------------|
|---------|---------------|------------------------|
|-5---0---|-5--5-(5)-5--5-|-(5)-5--5-(5)-5-(5)-5---|
|---6-----|-2--2-(2)-2--3-|-(3)-3--5-(5)-5-(5)---8-|
|-------3-|-3--3-(3)-3--4-|-(4)-4--6-(6)-6-(6)-----|
|---------|---------------|------------------------|


  C           C#maj7     Ebadd6
 4/4                                  2/4
|---------------|--------------------|----------|
|---------------|--------------------|----------|
|-5--5-(5)-5--5-|-(5)-5--5-(5)-5-(5)-|-5---0----|
|-2--2-(2)-2--3-|-(3)-3--5-(5)-5-(5)-|---6------|
|-3--3-(3)-3--4-|-(4)-4--6-(6)-6-(6)-|-------3--|
|---------------|--------------------|----------|


  C             C#maj7     Ebadd6
 4/4                                    2/4
|-----------------|--------------------|---------|
|-----------------|--------------------|---------|
|-5--5--(5)--5--5-|-(5)-5--5-(5)-5-(5)-|-5---0---|
|-2--2--(2)--2--3-|-(3)-3--5-(5)-5-(5)-|---6-----|
|-3--3--(3)--3--4-|-(4)-4--6-(6)-6-(6)-|-------3-|
|-----------------|--------------------|---------|


  C             C#maj7     Ebadd6
 4/4                                    2/4
|-----------------|--------------------|---------|
|-----------------|--------------------|---------|
|-5--5--(5)--5--5-|-(5)-5--5-(5)-5-(5)-|-5---0---|
|-2--2--(2)--2--3-|-(3)-3--5-(5)-5-(5)-|---6-----|
|-3--3--(3)--3--4-|-(4)-4--6-(6)-6-(6)-|-------3-|
|-----------------|--------------------|---------|


  C             C#maj7     Ebadd6
 4/4               6/4
|-----------------|-------------------------|
|-----------------|-------------------------|
|-5--5--(5)--5--5-|-(5)-5--5-(5)-5-(5)--5---|
|-2--2--(2)--2--3-|-(3)-3--5-(5)-5-(5)----6-|
|-3--3--(3)--3--4-|-(4)-4--6-(6)-6-(6)------|
|-----------------|-------------------------|


  C             C#maj7     Ebadd6
 4/4               6/4
|-----------------|-------------------------|
|-----------------|-------------------------|
|-5--5--(5)--5--5-|-(5)-5--5-(5)-5-(5)--5---|
|-2--2--(2)--2--3-|-(3)-3--5-(5)-5-(5)----6-|
|-3--3--(3)--3--4-|-(4)-4--6-(6)-6-(6)------|
|-----------------|-------------------------|


  C             C#maj7     Ebadd6
 4/4               6/4
|-----------------|-------------------------|
|-----------------|-------------------------|
|-5--5--(5)--5--5-|-(5)-5--5-(5)-5-(5)--5---|
|-2--2--(2)--2--3-|-(3)-3--5-(5)-5-(5)----8-|
|-3--3--(3)--3--4-|-(4)-4--6-(6)-6-(6)------|
|-----------------|-------------------------|


 Chorus
  F  C5      C#maj7     Ebadd6
 4/4            6/4
|--------------|---------------------------|
|--------------|---------------------------|
|-5--5-(5)-5-5-|-(5)-5--5-(5)-5-(5)--5-----|
|-7--5-(5)-5-3-|-(3)-3--5-(5)-5-(5)----8---|
|-8--3-(3)-3-4-|-(4)-4--6-(6)-6-(6)--------|
|--------------|---------------------------|


  F  C5      C#maj7     Ebadd6
 4/4            6/4
|--------------|----------------------------|
|--------------|----------------------------|
|-5--5-(5)-5-5-|-(5)-5--5-(5)-5-(5)--5-5----|
|-7--5-(5)-5-3-|-(3)-3--5-(5)-5-(5)---------|
|-8--3-(3)-3-4-|-(4)-4--6-(6)-6-(6)------3--|
|--------------|----------------------------|


  F  C5      C#maj7     Ebadd6
 4/4            6/4
|--------------|---------------------------|
|--------------|---------------------------|
|-5--5-(5)-5-5-|-(5)-5--5-(5)-5-(5)--5-----|
|-7--5-(5)-5-3-|-(3)-3--5-(5)-5-(5)----8---|
|-8--3-(3)-3-4-|-(4)-4--6-(6)-6-(6)--------|
|--------------|---------------------------|


  F  C5      C#maj7     Ebadd6
 4/4            4/4
|--------------|--------------------|
|--------------|--------------------|
|-5--5-(5)-5-5-|-(5)-5--5-(5)-5-(5)-|
|-7--5-(5)-5-3-|-(3)-3--5-(5)-5-(5)-|
|-8--3-(3)-3-4-|-(4)-4--6-(6)-6-(6)-|
|--------------|--------------------|


  $
            C           C#maj7     Ebadd6
 2/4       4/4             4/4                  2/4
  Gtr I
|---------|---------------|--------------------|---------|
|---------|---------------|--------------------|---------|
|-5---0---|-5--5-(5)-5--5-|-(5)-5--5-(5)-5-(5)-|-5---0---|
|---6-----|-2--2-(2)-2--3-|-(3)-3--5-(5)-5-(5)-|---6-----|
|-------3-|-3--3-(3)-3--4-|-(4)-4--6-(6)-6-(6)-|-------3-|
|---------|---------------|--------------------|---------|


  C             C#maj7     Ebadd6
 4/4                                    2/4
|-----------------|--------------------|---------|
|-----------------|--------------------|---------|
|-5--5--(5)--5--5-|-(5)-5--5-(5)-5-(5)-|-5---0---|
|-2--2--(2)--2--3-|-(3)-3--5-(5)-5-(5)-|---6-----|
|-3--3--(3)--3--4-|-(4)-4--6-(6)-6-(6)-|-------3-|
|-----------------|--------------------|---------|


  C             C#maj7     Ebadd6
 4/4                                    2/4
|-----------------|--------------------|---------|
|-----------------|--------------------|---------|
|-5--5--(5)--5--5-|-(5)-5--5-(5)-5-(5)-|-5---0---|
|-2--2--(2)--2--3-|-(3)-3--5-(5)-5-(5)-|---6-----|
|-3--3--(3)--3--4-|-(4)-4--6-(6)-6-(6)-|-------3-|
|-----------------|--------------------|---------|


                                   To Coda
  C             C#maj7     Ebadd6
 4/4               6/4
|-----------------|-------------------------|
|-----------------|-------------------------|
|-5--5--(5)--5--5-|-(5)-5--5-(5)-5-(5)--5---|
|-2--2--(2)--2--3-|-(3)-3--5-(5)-5-(5)----8-|
|-3--3--(3)--3--4-|-(4)-4--6-(6)-6-(6)------|
|-----------------|-------------------------|

[ Tab from: http://www.guitartabs.cc/tabs/r/radiohead/everything_in_its_right_place_tab.html ]
 Verse
  Fm/C# Em/C      Gm/Eb        Fm/C#       Em/C       Gm/Eb        Fm/C#
 5/4       4/4                    6/4          4/4
  Gtr I
|---------|----------------------|------------|----------------------|
|---------|----------------------|------------|----------------------|
|---------|----------------------|------------|----------------------|
|-6-(6)-5-|-(5)-5--8--(8)--(8)-6-|-(6)-(6)--5-|-(5)-5--8--(8)--(8)-6-|
|-8-(8)-7-|-(7)-7-10-(10)-(10)-8-|-(8)-(8)--7-|-(7)-7-10-(10)-(10)-8-|
|-9-(9)-8-|-(8)-8-11-(11)-(11)-9-|-(9)-(9)--8-|-(8)-8-11-(11)-(11)-9-|


  Fm/C#   Em/C      Gm/Eb        Fm/C#       Em/C       Gm/Eb        Fm/C#
 6/4         4/4                    6/4          4/4
|-----------|----------------------|------------|----------------------|
|-----------|----------------------|------------|----------------------|
|-----------|----------------------|------------|--------------------5-|
|-(6)-(6)-5-|-(5)-5--8--(8)--(8)-6-|-(6)-(6)--5-|-(5)-5--8--(8)--(8)-7-|
|-(8)-(8)-7-|-(7)-7-10-(10)-(10)-8-|-(8)-(8)--7-|-(7)-7-10-(10)-(10)-8-|
|-(9)-(9)-8-|-(8)-8-11-(11)-(11)-9-|-(9)-(9)--8-|-(8)-8-11-(11)-(11)---|


 Chorus
  F  C5      C#maj7     Ebadd6
 4/4            6/4
|--------------|---------------------------|
|--------------|---------------------------|
|-5--5-(5)-5-5-|-(5)-5--5-(5)-5-(5)--5-----|
|-7--5-(5)-5-3-|-(3)-3--5-(5)-5-(5)----8---|
|-8--3-(3)-3-4-|-(4)-4--6-(6)-6-(6)--------|
|--------------|---------------------------|


  F  C5      C#maj7     Ebadd6
 4/4            6/4
|--------------|---------------------------|
|--------------|---------------------------|
|-5--5-(5)-5-5-|-(5)-5--5-(5)-5-(5)--5-----|
|-7--5-(5)-5-3-|-(3)-3--5-(5)-5-(5)----8---|
|-8--3-(3)-3-4-|-(4)-4--6-(6)-6-(6)--------|
|--------------|---------------------------|


  F  C5      C#maj7     Ebadd6
 4/4            6/4
|--------------|----------------------------|
|--------------|----------------------------|
|-5--5-(5)-5-5-|-(5)-5--5-(5)-5-(5)--5------|
|-7--5-(5)-5-3-|-(3)-3--5-(5)-5-(5)----8----|
|-8--3-(3)-3-4-|-(4)-4--6-(6)-6-(6)------3--|
|--------------|----------------------------|


                    D.S. al Coda
  F  C5      C#maj7     Ebadd6
 4/4            4/4
|--------------|--------------------|
|--------------|--------------------|
|-5--5-(5)-5-5-|-(5)-5--5-(5)-5-(5)-|
|-7--5-(5)-5-3-|-(3)-3--5-(5)-5-(5)-|
|-8--3-(3)-3-4-|-(4)-4--6-(6)-6-(6)-|
|--------------|--------------------|


 Verse 2
  &
  Fm/C# Em/C      Gm/Eb        Fm/C#       Em/C       Gm/Eb        Fm/C#
 5/4       4/4                    6/4          4/4
  Gtr I
|---------|----------------------|------------|----------------------|
|---------|----------------------|------------|----------------------|
|---------|----------------------|------------|----------------------|
|-6-(6)-5-|-(5)-5--8--(8)--(8)-6-|-(6)-(6)--5-|-(5)-5--8--(8)--(8)-6-|
|-8-(8)-7-|-(7)-7-10-(10)-(10)-8-|-(8)-(8)--7-|-(7)-7-10-(10)-(10)-8-|
|-9-(9)-8-|-(8)-8-11-(11)-(11)-9-|-(9)-(9)--8-|-(8)-8-11-(11)-(11)-9-|


  Fm/C#   Em/C      Gm/Eb        Fm/C#       Em/C       Gm/Eb        Fm/C#
 6/4         4/4                    6/4          4/4
|-----------|----------------------|------------|----------------------|
|-----------|----------------------|------------|----------------------|
|-----------|----------------------|------------|----------------------|
|-(6)-(6)-5-|-(5)-5--8--(8)--(8)-6-|-(6)-(6)--5-|-(5)-5--8--(8)--(8)-6-|
|-(8)-(8)-7-|-(7)-7-10-(10)-(10)-8-|-(8)-(8)--7-|-(7)-7-10-(10)-(10)-8-|
|-(9)-(9)-8-|-(8)-8-11-(11)-(11)-9-|-(9)-(9)--8-|-(8)-8-11-(11)-(11)-9-|


  Fm/C#   Em/C      Gm/Eb        Fm/C#       Em/C       Gm/Eb        Fm/C#
 5/4         4/4                    6/4          4/4
|-----------|----------------------|------------|----------------------|
|-----------|----------------------|------------|----------------------|
|-----------|----------------------|------------|----------------------|
|-(6)-(6)-5-|-(5)-5--8--(8)--(8)-6-|-(6)-(6)--5-|-(5)-5--8--(8)--(8)-6-|
|-(8)-(8)-7-|-(7)-7-10-(10)-(10)-8-|-(8)-(8)--7-|-(7)-7-10-(10)-(10)-8-|
|-(9)-(9)-8-|-(8)-8-11-(11)-(11)-9-|-(9)-(9)--8-|-(8)-8-11-(11)-(11)-9-|


  Fm/C#   Em/C      Gm/Eb        Fm/C#       Em/C       Gm/Eb        Fm/C#
 5/4         4/4                    6/4          4/4
|-----------|----------------------|------------|----------------------|
|-----------|----------------------|------------|----------------------|
|-----------|----------------------|------------|----------------------|
|-(6)-(6)-5-|-(5)-5--8--(8)--(8)-6-|-(6)-(6)--5-|-(5)-5--8--(8)--(8)---|
|-(8)-(8)-7-|-(7)-7-10-(10)-(10)-8-|-(8)-(8)--7-|-(7)-7-10-(10)-(10)-3-|
|-(9)-(9)-8-|-(8)-8-11-(11)-(11)-9-|-(9)-(9)--8-|-(8)-8-11-(11)-(11)---|


 Outro
  F  C5      C#maj7     Ebadd6Cmadd11/Eb
 4/4            6/4
|--------------|--------------------------|
|--------------|--------------------------|
|--------------|--------------------------|
|-7--5-(5)-5-3-|-(3)-3--5-(5)-3-(3)-------|
|-8--3-(3)-3-4-|-(4)-4--6-(6)-6-(6)--3----|
|--------------|--------------------------|


  F  C5      C#maj7     Ebadd6Cmadd11/Eb
 4/4            6/4
|--------------|--------------------------|
|--------------|--------------------------|
|--------------|--------------------------|
|-7--5-(5)-5-3-|-(3)-3--5-(5)-3-(3)-------|
|-8--3-(3)-3-4-|-(4)-4--6-(6)-6-(6)--3----|
|--------------|--------------------------|


  $$
  F  C5      C#maj7     Ebadd6
 4/4            6/4
|--------------|-------------------------|
|--------------|-------------------------|
|--------------|-------------------------|
|-7--5-(5)-5-3-|-(3)-3--5-(5)-5-(5)------|
|-8--3-(3)-3-4-|-(4)-4--6-(6)-6-(6)-3----|
|--------------|-------------------------|


  F  C5      C#maj7     Ebadd6Cmadd11/Eb
 4/4            6/4
|--------------|---------------------------|
|--------------|---------------------------|
|--------------|---------------------------|
|-7--5-(5)-5-3-|-(3)-3--5-(5)-3-(3)--------|
|-8--3-(3)-3-4-|-(4)-4--6-(6)-6-(6)-3-3----|
|--------------|---------------------------|


  F  C5      C#maj7     Ebadd6Cmadd11/Eb
 4/4            6/4
|--------------|--------------------------|
|--------------|--------------------------|
|--------------|--------------------------|
|-7--5-(5)-5-3-|-(3)-3--5-(5)-3-(3)-------|
|-8--3-(3)-3-4-|-(4)-4--6-(6)-6-(6)--3----|
|--------------|--------------------------|


                               D.S.S.
  F  C5      C#maj7     Ebadd6Cmadd11/Eb
 4/4            6/4
|--------------|--------------------------*|
|--------------|--------------------------*|
|--------------|--------------------------*|
|-7--5-(5)-5-3-|-(3)-3--5-(5)-3-(3)-------*|
|-8--3-(3)-3-4-|-(4)-4--6-(6)-6-(6)--3----*|
|--------------|--------------------------*|


Song tabbe d by Bruno Gamba 2004.Any question nobbru@libero.it
Comments