Radiohead - Electioneering Chords & Tabs

 

Electioneering Chords & Tabs

Radiohead Chords & Tabs

Version: 4 Type: Tab 0 ratings
1 star 2 stars 3 stars 4 stars 5 stars
comments

Electioneering Tab

   
I've watched some videos fo them paly this song live and ive got most of the song down,
Im mainly going to do johnny's part cause thats the only thing that stands out

*Listen closely for everything*

Drop D tuning

V   Vibrato
^   Bend
/   slide
h   hammer
p   pull
/ \ slide down and up the neck
T   Tremelo pick
~   Let Ring
X   Mute

 for the beggining i jsut slide in on the Dropped D string

e|---------------------------------------------------10h12p10----------|
b|--------------------8-6-8-6-8-6-----8-6-8-6--------------10h12-------|
g|-----------------7--------------7V----------------------------10V----|
d|---------------------------------------------------------------------|
a|---------------------------------------------------------------------|
D|---1/-\--------------------------------------------------------------|

e|------------------------------------------------|
b|---------6^--5-5-5-5-5-5--8p5-5-5-5-5-5-5-------|
g|-------------5-5-5-5-5-5h7----5-5-5-5-5-5-9-7-9-|
d|-7~-----------5-5-5-5-5-5-----7-7-7-7-7-7-------|
a|------------------------------------------------|
D|------------------------------------------------|


e|---------------------12^-----------------|
b|-------8-6-8-6---------------------------|
g|----7------------10-----12/10v-----------|
d|---------------12------------------------|
a|-----------------------------------------|
D|-----------------------------------------|


@ 1:01
e|-----------------------------------------|
b|-----8-6-8-6-----------------------------|
g|-------------5-0-6-0-7-------------------|
d|-----------------------------------------|
a|-----------------------------------------|
D|-----------------------------------------|

Chorus

e|---------------------------------------------------------------------------|
b|T1010101010--8-8-----------------------------------------------------------|
g|-----------------10-10--9--10-9--7-7-5-5------5----------------------------|
d|------------------------------------------7-7----7-5--3-3------------------|
a|---------------------------------------------------------7-7--5-5--3-5-3---|
D|---------------------------------------------------------------------------|


e|-----------------------------------------------------|
b|-----------------------------------------------------|
g|-----------------------------------------------------|
d|--------------------x--------------------------------|
a|--------------------x-----------3-5-33-5-7-8-10-8-10-|
D|-7-7--5-5-3-3-2-3-2-x-3-x-5-x-7----------------------|


e|---------------------------------------12^----------------|
b|----------------------------------------------------------|
g|---------------------------------10-12----12/10v----------|
d|---------------------14^^^^---12--------------------------|
a|-1212-1414-1515-1717--------------------------------------|
D|----------------------------------------------------------|


e|-----------10h12p10-------------------------12^-------------|
b|---8-6-8-6---------10h12-------8-6-8-6----------12^(14)-10V-|
g|-----------------------10V---------------10-----------------|
d|---------------------------------------12-------------------|
a|------------------------------------------------------------|
D|------------------------------------------------------------|

e|------------------------------------------------------|
b|--8-6-8-6-8^8^8^-6h8p6---8-6-8-6----------------------|
g|----------------7----------------5-0-6-0-7-0-7--------|
d|------------------------------------------------------|
a|------------------------------------------------------|
D|------------------------------------------------------|


     Second time dont bend the 6
e|-------------------------------------------------------|
b|---------6^--5-5-5-5-5-5--8p5-5-5-5-5-5-5--------------|
g|-------------5-5-5-5-5-5h7----5-5-5-5-5-5-9-7-9--------|
d|-7~-----------5-5-5-5-5-5-----7-7-7-7-7-7--------------|
a|-------------------------------------------------------|
D|-------------------------------------------------------|

Chorus
[ Tab from: http://www.guitartabs.cc/tabs/r/radiohead/electioneering_tab_ver_4.html ]
e|--------------------------------------------------------------------------|
b|T1010101010--8-8----------------------------------------------------------|
g|-----------------10-10--9--10-9--7-7-5-5------5---------------------------|
d|------------------------------------------7-7----7-5--3-3-----------------|
a|---------------------------------------------------------7-7--5-5--3-5-3--|
D|--------------------------------------------------------------------------|


e|------------------------------------------------------------|
b|------------------------------------------------------------|
g|------------------------------------------------------------|
d|--------------------x---------------------------------------|
a|--------------------x-----------3-5-33-5-7-8-10-8-10--------|
D|-7-7--5-5-3-3-2-3-2-x-3-x-5-x-7-----------------------------|

e|-------------------------------------|
b|-------------------------------------|
g|-------------------------------------|
d|-------------------------------------|
a|-/12\-/14\-/15\-/17\--/19^^^^^-------|
D|-------------------------------------|

use echo
e|--------------------------------------------------------------|
b|--------------------------------------------------------------|
g|--------------------------------------------------------------|
d|--------------------------------------------------------------|
a|-/15----------------------------------------------------------|
D|----/17-16-17-19/12/15/17/14---h15p14h15p14h15-14~------------|
     |_______________________________________| tremelo pick.


Solo thrash.                       just pull off and hammer around 9 & 10th
e|---------------------------------------------------------------------------|
b|-Tx-15V-13V-12V-10V-13V-12V-10V-9V-9-9-9h10p9-9-9h10p9-9-9h10p9-9-9h10p9-9-|
g|---------------------------------------------------------------------------|
d|---------------------------------------------------------------------------|
a|---------------------------------------------------------------------------|
D|---------------------------------------------------------------------------|


@ 3:04 tough to hear this so take it as a guide.
e|----------------5-x---------5-----------------x-----|
b|----3/5-5-3--5^---x---5-3-5^--5-3---------3---x-----|
g|-------------------x--------------5-4-4h5-----------|
d|----------------------------------------------------|
a|----------------------------------------------------|
D|----------------------------------------------------|


                                   Johnny uses an effect on his
                                   3 position switch, but this sounds
                                   good if you do it right.
e|--------xx---8-7-xx------x--8-7----------------------|
b|---3--5-x--------xx--3-5-x--------T15^^^^^^^---------|
g|--------x--------xx----------------------------------|
d|-----------------------------------------------------|
a|-----------------------------------------------------|
D|-----------------------------------------------------|

e|---------------------------------------------------------------------------|
B|-----------------------------------------------------------------x-x-------|
g|--------14-x-x-13-x-x-12-10v-10v---x-17-17-x-16-16-x-15-14v-14v--x-x-------|
d|-----------------------------------------------------------------x-x-------|
a|--------12-x-x-11-x-x-10-8v--8v----x-15-15-x-14-14-x-13-12v-12v--x-x-------|
D|-----------------------------------------------------------------x-x-------|
                X2                       X2


e|--5---13-10-----5-13-5----5-----5----13--5---------------------------|
b|--6--------10---6----6----6-----6--------6---------------------------|
g|--7-------------7----7----7-----7--------7---------------------------|
d|--0-------------0----0----0-----0--------0---------------------------|
a|--0-------------0----0----0-----0--------0---------------------------|
D|-------------------------------------------------0~------------------|
                                         Turn down the volum nob on your guitar fast.


-Ryan S.

Please Rate.  "?" email me at salisburysteak89@comcast.net
Comments