Radiohead - Bones Chords & Tabs

 

Bones Chords & Tabs

Radiohead Chords & Tabs

Version: 3 Type: Bass Tab 0 ratings
1 star 2 stars 3 stars 4 stars 5 stars
comments

Bones Bass Tab

-------------------------------------------------------------------------------
			     Bones - Radiohead
-------------------------------------------------------------------------------

Tabbed By : Luke Gilks 
e-mail: fake_plastic_trees@hotmail.co.uk

Tuning: Standard
[ Tab from: http://www.guitartabs.cc/tabs/r/radiohead/bones_btab_ver_3.html ]
Intro
G|-------------|---------|-------|-------|-------|-------|
D|-------------|---------|-------|-------|-------|-------|
A|-5-5---------|---------|-------|-------|-------|-------|
E|-----3-3-3-3-|-2-0-2-5-|-5-7-5-|-5-7-5-|-5-7-5-|-5-7-7-|

Main Part
G|---------|---------|---------|-------|-------|-------|------|
D|---------|---------|---------|-------|-------|-------|------|
A|-5-5-5-5-|---------|---------|-------|-------|-------|------|
E|---------|-3-3-3-3-|-2-0-2-5-|-5-7-5-|-5-7-5-|-5-7-5-|5-7-7-|

The main part is repeated throughout the song, there may be some variation in the chorus
Comments