Radiohead - Blow Out Chords & Tabs

 

Blow Out Chords & Tabs

Radiohead Chords & Tabs

Version: 2 Type: Tab 0 ratings
1 star 2 stars 3 stars 4 stars 5 stars
comments

Blow Out Tab

Song:Blow Out 
Artist:Radiohead
Album:Pablo Honey
Tuning:Standard (EADGBe)

Two Guitars playing:
Gtr 1: clean, neck pickup, trebly
Gtr 2: short delay and overdrive, lot of bass don't overdo the amount of dist
       because notes must be distinct

x: mute string
/: slide

tabbed by BoF feel free to send me feedback 
and corrections at Bof_mu@caramail.com


Intro x2
e---------------------------------
B---------------------------------
G--11---x11-11-x11-11-x-11-11-----
D-------x------x------x-----------x2
A---9---x-9--9-x-9--9-x--9--9-----
E-----------------------10-10-----

e------------------------------------
B------------------------------------
G------------------------------------
D--5---7-7---9--7-7-----------5------
A------------------------------------
E--3---5-5---7--5-5-----------3------
                   let ring

Verse 1

Gtr 1
e---------------------------------
B---------------------------------
G--11---x11-11-x11-11-x-11-11-----
D-------x------x------x-----------
A---9---x-9--9-x-9--9-x--9--9-----
E-----------------------10-10-----
Gtr 2
e--0------------------------------------------------------
B----0----------------------------------------------------
G------0--------------------------------------------------
D--------0------------------------------------------------
A----------0----------------------------------------------
E------------0--------------------------------------------


Gtr 1
e--------------------------------------
B--------------------------------------
G--------------------------------------
D--5--7-7----9--7-7--------------------
A--------------------------------------
E--3--5-5----7--5-5--------------------
Gtr 2
e--------------------------------------------------------
B--------------------------------------------------------
G------7----6--------------------------------------------
D--------------------------------------------------------
A--7/9--7/9----------------------------------------------
E--------------------------------------------------------

[ Tab from: http://www.guitartabs.cc/tabs/r/radiohead/blow_out_tab_ver_2.html ]
Gtr 1
e---------------------------------
B---------------------------------
G--11---x11-11-x11-11-x-11-11-----
D-------x------x------x-----------
A---9---x-9--9-x-9--9-x--9--9-----
E-----------------------10-10-----
Gtr 2
e--------------0------------------------------------------
B-------------0-------------------------------------------
G------------0--------------------------------------------
D-----------2---------------------------------------------
A----------2----------------------------------------------
E--3-2-0--0-----------------------------------------------
   
            let ring
Gtr 1
e---------------------------------------
B---------------------------------------
G---------------------------------------
D--5--7-7----9--7-7---------------------
A--------------------------------5------
E--3--5-5----7--5-5--------------3------
Gtr 2
e--------------------------------------------------------
B--------------------------------------------------------
G------7----6--------------------------------------------
D--------------------------------------------------------
A--7/9--7/9----5-4-2-0-2---------------------------------
E--------------------------------------------------------


Bridge
e---4-3-4-3-------3-2-3-2------
B-----------------2-2-2-2------
G-----------------2-2-2-2------
D---2-2-2-2--------------------
A---3-3-3-3--------------------
E------------------------------

Verse 2
Don't play like verse 1 cause it's just pure feedback and dist noise continuing
from bridge part. Turn dist all way up and go nut!!!!.

Interlude
still feedback and noise
e--------------------------------------------------------
B--------------------------------------------------------
G--------------------------------------------------------
D--2------2---------7--------7---------------------------
A--2------2---------7--------7---------------------------x2
E--0------0---------5--------5---------------------------
    xxxxxxx xxxxxxx  xxxxxxxxx
     ^         ^         ^     -->drumrolls


for the rest tremolo picking, noise, and feedback. 

That's all. Hope You Enjoy my tab.
Comments