Radiohead - Anyone Can Play Guitar Chords & Tabs

 

Anyone Can Play Guitar Chords & Tabs

Radiohead Chords & Tabs

Version: 2 Type: Bass Tab 0 ratings
1 star 2 stars 3 stars 4 stars 5 stars
comments

Anyone Can Play Guitar Bass Tab

Artist:    Radiohead
Song:      Anyone Can Play Guitar
Album:     Pablo Honey
Tabbed by: AA23 (aceacetwothree@hotmail.com)

I've only done the main riff, but that's the cool part.  My speakers aren't 
very good here and I can't tell the octaves for the rest of it through the 
distortion

This part is mostly correct.  I haven't been able to see any concert footage 
(let alone in person), so any corrections are appreciated.

[ Tab from: http://www.guitartabs.cc/tabs/r/radiohead/anyone_can_play_guitar_btab_ver_2.html ]
Main Riff 1  (Main)
|1   &   2   &   3   &   4   &   |1   &   2   &   3   &   4   &   |

D|--------------------------------|--------------------------------|
A|7-------7-----5-7---7-----------|(7)-----7-----5-7---7-------5-2-|
E|(0)-------------------------5-7-|0-------------------------------|


A|3---/---15----1415--15------14--|3---/---15----1415--15------14--|
E|------------------------------15|------------------------------15|


Main Riff variation during verse 1 & 2
D|---5-----|
A|-----7-5-|
E|---------|

I'll post the rest soon
Comments