Radiohead - 15 Step Chords & Tabs

 

15 Step Chords & Tabs

Radiohead Chords & Tabs

Version: 4 Type: Tab 0 ratings
1 star 2 stars 3 stars 4 stars 5 stars
comments

15 Step Tab

   
-------------------------------------------------------------------------------
			     15 STEP - Radiohead
-------------------------------------------------------------------------------
Tabbed by: Beau (Beauquaresma)
Email: Beaudz@msn.com

Tuning:Standard

Couldn’t find any correct tabs for this song, especially not the chorus part of it, even 
part in the
In Rainbows guitar tab book I bought was wrong.
This tab is mainly for the chorus part by the way, as i dont believe many people have
it out properly yet.
I’m pretty sure this is correct having watched videos of the song over and over.
It's best played fingerpicked

Verse (x5)
e|------------------------------------------------------4----------4----------------|
B|-------------4--------------2----4\-------------------6----------4h6--------------|
G|-------------4--------------4----4\-----------------------------------------------|
D|----------------------------------------------------------------------------------|
A|---------------------------------------------4------------4-----------------------|
E|-------4---------------4----------------------------------------------------------|

e|---------------6------------------------------------4-----------4-----------------|
B|---------------7-------------6----------------------6-----------4h6\--------------|
G|----------------------------------8-----------------------------------------------|
D|----------------------------------------------------------------------------------|
A|--------6-------------6---------------------4------------4------------------------|
E|----------------------------------------------------------------------------------|

e|------------------------------------------------------4---------------------------|
B|-------------4--------------2----4\-------------------6-----------4h6-------------|
G|-------------4--------------4----4\--------------------------6--------------------|
D|----------------------------------------------------------------------------------|
A|---------------------------------------------4------------------------------------|
E|-------4---------------4----------------------------------------------------------|

e|---------------6------------------------------------4-----------4\----------------|
B|---------------7-------------6----------------------6-----------4h6\--------------|
G|----------------------------------8-----------------------------------------------|
D|-----------(6)--------------------------------------------------------------------|
A|--------6-------------6---------------------4------------4------------------------|
E|----------------------------------------------------------------------------------|

Chorus (x2)
e|--------------7----------------------------------9--------------------------------|
B|---------------------9p0-----0----------------------------11p0------0-------------|
G|-------/8-------8---------8---------------/10------10-----------10----------------|
D|----------------------------------------------------------------------------------|
A|----------------------------------------------------------------------------------|
E|----------------------------------------------------------------------------------|

[ Tab from: http://www.guitartabs.cc/tabs/r/radiohead/15_step_tab_ver_4.html ]
e|-------------11--------------------------------------9----------------------------|
B|-------------------------12p0--------0-----------------------11p0-------0---------|
G|------11--------11-------------11------------10------10-----------10--------------|
D|----------------------------------------------------------------------------------|
A|----------------------------------------------------------------------------------|
E|----------------------------------------------------------------------------------|

e|------------7----------------------------------4--------6p4-----------------------|
B|--------------------9p0------0--------------------------------6-------------------|
G|------/8-------8---------8---------------6-------6--------------------------------|
D|----------------------------------------------------------------------------------|
A|----------------------------------------------------------------------------------|
E|----------------------------------------------------------------------------------|

e|--------------2----------1--------------------------1-----------(1)---------------|
B|-------------------------------4-----------------------0--------------------------|
G|------4-----------4--------------------------1-----------1------------------------|
D|----------------------------------------------------------------------------------|
A|----------------------------------------------------------------------------------|
E|----------------------------------------------------------------------------------|

Then
e|--------------------------4-------------------------------------------------------|
B|--------5---------------------5---------------------------------------------------|
G|-------------6----------------------6---------------------------------------------|
D|------------------6------------------------6--------------------------------------|
A|--------------------------------------------------4-------------------------------|
E|----------------------------------------------------------------------------------|

e|---------------------------------3------------------------------------------------|
B|---------4-----------------------------4------------------------------------------|
G|---------------5------------------------------5-----------------------------------|
D|----------------------5-------------------------------5---------------------------|
A|---------------------------------------------------------------3------------------|
E|----------------------------------------------------------------------------------|

And (x4)
e|----------------------------------------------------------------------------------|
B|------------4------------2-------4-----------------4---------(4)----4-------------|
G|------------4------------4-------4-----------------3----------4-----3-------------|
D|----------------------------------------------------------------------------------|
A|----------------------------------------------------------------------------------|
E|-----4--------------4-------------------------4----------4------------------------|

After all this…
Verse x2
Chorus x1

| /  slide up
| \  slide down
| h  hammer-on
| p  pull-off
| ~  vibrato
| +  harmonic
| x  Mute note
===============================================================================
Comments