Racoon - Little Down On The Upside Chords & Tabs

 

Little Down On The Upside Chords & Tabs

Racoon Chords & Tabs

Version: 1 Type: Tab 0 ratings
1 star 2 stars 3 stars 4 stars 5 stars
comments

Little Down On The Upside Tab

   
-------------------------------------------------------------------------------
                             Little Down On The Upside - Racoon
-------------------------------------------------------------------------------
Tabbed by:Dirk Vissers
E-mail:dirkvissers@hotmail.com

Tune your guitar a half step down to play this.
Please rate and comment!:D


Tuning:Eb Ab Db Gb Bb Eb

e|--------------------3------3--------------------------3-------3----|
B|-1---3---5---6---3------3----3----1---3---5---3---1-------1-----1--|
G|---0---0---0---0---0--0---0---------0---0---0---0---0---0---0------|
D|-------------------------------------------------------------------|
A|-3---5---7---8---5----------------3---5---7---5---3----------------|
E|-------------------------------------------------------------------|

1st verse
e|--------------------3-------3---|
B|-1---3---5---6---3------3----3--|
G|---0---0---0---0---0--0---0-----|3X
D|--------------------------------|
A|-3---5---7---8---5--------------|
E|--------------------------------|

e|---------------------3-------3----|
B|-1---3---5---3---1-------1-----1--|
G|---0---0---0---0---0---0---0------|
D|----------------------------------|
A|-3---5---7---5---3----------------|
E|----------------------------------|

2nd verse
e|--------------------3-------3---|
B|-1---3---5---6---3------3----3--|
G|---0---0---0---0---0--0---0-----|2X
D|--------------------------------|
A|-3---5---7---8---5--------------|
E|--------------------------------|

e|--------------------3---5p3---3---|
B|-1---3---5---6---3----------3-----|
G|---0---0---0---0---0--0---------0-|
D|----------------------------------|
A|-3---5---7---8---5----------------|
E|----------------------------------|

e|---------------------3-------3----|
B|-1---3---5---3---1-------1-----1--|
G|---0---0---0---0---0---0---0------|
D|----------------------------------|
A|-3---5---7---5---3----------------|
E|----------------------------------|



Chorus
e|-------3--------3----------0-------|
B|-1---1----1---1----1---1-------1---|
G|---2--------2--------0---0---0---0-|2X
D|-----------------------------------|
A|-0--------0------------------------|
E|-------------------3---------------|

e|-------3-------3-------3-------3-|
B|-1---1---1---1---1---1---1---1---|
G|---2-------2-------2-------2-----|
D|---------------------------------|
A|-3-------3-------0-------0-------|
E|---------------------------------|
[ Tab from: http://www.guitartabs.cc/tabs/r/racoon/little_down_on_the_upside_tab.html ]
e|---------------------------0--------|
B|-1---1---1---------1---1-------1----|
G|---2---0---0----0----0---0---0---0--|
D|-3---2-------0h2--------------------|
A|---------3--------------------------|
E|-------------------3----------------|

e|-------3-------3-------3-------3-|
B|-1---1---1---1---1---1---1---1---|
G|---2-------2-------2-------2-----|
D|---------------------------------|
A|-3-------3-------0-------0-------|
E|---------------------------------|

e|---------------------------0--------|
B|-1---1---1---------1---1-------1----|
G|---2---0---0----0----0---0---0---0--|
D|-3---2-------0h2--------------------|
A|---------3--------------------------|
E|-------------------3----------------|

e|--------------------3------3--------------------------3-------3----|
B|-1---3---5---6---3------3----3----1---3---5---3---1-------1-----1--|
G|---0---0---0---0---0--0---0---------0---0---0---0---0---0---0------|2X
D|-------------------------------------------------------------------|
A|-3---5---7---8---5----------------3---5---7---5---3----------------|
E|-------------------------------------------------------------------|

Whistling solo
e|---------------------------|
B|--5-8~--6-5----------------|
G|------------7--5-7br-5-----|
D|-----------------------5---|
A|---------------------------|
E|---------------------------|


3rd Verse
e|--------------------3-------3---|
B|-1---3---5---6---3------3----3--|
G|---0---0---0---0---0--0---0-----|2X
D|--------------------------------|
A|-3---5---7---8---5--------------|
E|--------------------------------|

e|--------------------3---5p3---3---|
B|-1---3---5---6---3----------3-----|
G|---0---0---0---0---0--0---------0-|
D|----------------------------------|
A|-3---5---7---8---5----------------|
E|----------------------------------|

e|---------------------3-------3----|
B|-1---3---5---3---1-------1-----1--|
G|---0---0---0---0---0---0---0------|
D|----------------------------------|
A|-3---5---7---5---3----------------|
E|----------------------------------|

Chorus' the same as but ends with this
e|--------------------3------3-------------------------|
B|-1---3---5---6---3------3----3----1---3---5---3---1--|
G|---0---0---0---0---0--0---0---------0---0---0---0----|
D|-----------------------------------------------------|
A|-3---5---7---8---5----------------3---5---7---5---3--|
E|-----------------------------------------------------|


************************************

| /   slide up
| \   slide down
| h   hammer-on
| p   pull-off
| ~   vibrato
| +   harmonic
| x   Mute note
| b   Bend
| pb  Pre-bend
| br  Bend release
| pbr Pre-bend release
| brb Bend release bend

************************************
Comments