Racoon - Feel Like Flying Chords & Tabs

 

Feel Like Flying Chords & Tabs

Racoon Chords & Tabs

Version: 1 Type: Tab 0 ratings
1 star 2 stars 3 stars 4 stars 5 stars
comments

Feel Like Flying Tab

Riff 1
G | -------------------------------------------------------------------------------------------------|
D | ----------0-----------------------------------------------------0--------------------------------|
A | -------------3-----------3---3---3---3---------------------------3--------------3----3----3---3--|
E  | ---3---3-------------------------------------------------3---3----------------------------------|

G | ---------------------------------------------------------------------------------------------|
D | ----------0-----------------------------------------------------0----------------------------|
A | -------------3-----------3---3---3---3---------------------------3----------2---0----2----3--|
E  | ---3---3-------------------------------------------------3---3------------------------------|

Riff 2
G | -------------------------------------------------------------------------------------------------|
D | ----------0-----------------------------------------------------0--------------------------------|
A | -------------3-----------3---3---3---3---------------------------3--------------3----3----3---3--|
E  | ---3---3-------------------------------------------------3---3----------------------------------|
[ Tab from: http://www.guitartabs.cc/tabs/r/racoon/feel_like_flying_tab.html ]
G | --------------------------------------------------------------------|
D | ----------0-----------------------------------------------------0---|
A | -------------3-----------3---3---3---3---------------------------3--|
E  | ---3---3-------------------------------------------------3---3-----|

Riff 3
G | -----------------------------------------------------------------|
D | -----------------------------------------------------------------|
A | -----------------3-----3-3----3------------3-----3-3----3--------|
E  | ----3-----3-3--------------------3-----3-3----------------------|

Riff 4
G |-------------------------------------------------------------------------------|
D |-5-5-5-5-5-5-5-5---------------------5-5-5-5-5-5-5-5---------------------------|
A |---------------------3-3-3-3-3-3-3-3----------------------3-3-3-3-3------------|
E |-------------------------------------------------------------------------------|

Riff 5
G |----------------------------------------------------------------------------|
D |----------------------------------------------------------------------------|
A | -5-5-5-5-5-5-5-5-3---3---3-r--5-5-5-5-5-5-5-5-3---3---5---5----------------|
E | ---------------------------------------------------------------------------|


Riff 1 [2x]
Riff 2 [1x]
Riff 1 [1x]
Riff 2 [1x]
Riff 3 [4x]
Riff 1 [2x]
Riff 4 [1x]
Riff 3 [4x]
Riff 5 [1x]
Riff 1 [1x]
Riff 2 [1x]
Riff 1 [1x]
Riff 2 [1x]
Riff 4 [1x]
Riff 3 [4x]
Riff 5 [1x]
Comments