Rack Wordnah - Flesh Wound Chords & Tabs

 

Flesh Wound Chords & Tabs

Rack Wordnah Chords & Tabs

Version: 1 Type: Tab 0 ratings
1 star 2 stars 3 stars 4 stars 5 stars
comments

Flesh Wound Tab

#----------------------------------PLEASE NOTE--------------------------------#
#This file is the author's own work and represents their interpretation of the#
#song. You may only use this file for private study, scholarship, or research.#
#-----------------------------------------------------------------------------#
#-- File created with Instab - http://www.pconline.com/~smcarey/instab.html --#
#-----------------------------------------------------------------------------#

Author/Artist: Wordnah Rack
Title: It's just a flesh wound
Album: True
Transcribed by: Psycho-Clown
Email: fakeone@hotmail.com



.





  
[ Tab from: http://www.guitartabs.cc/tabs/r/rack_wordnah/flesh_wound_tab.html ]
--------1-------1-------3-------3-------0-------0---|-0v----------------------
----------------------------------------------------|-2v----------------------
------2---2---2---2---3---3---3---3---2---2---2---2-|-2v----------------------
----0-------0-------0-------0-----------------------|-2v----------------------
------------------------------------0-------0-------|-xv----------------------
----------------------------------------------------|-xv----------------------
 Repeat this part ----  then continue past the line   Hold for a while...     

-1-1-1-1-p-1-1-1-1-p-1-1-1-1-p-1-1-1-1--3-3-3-3--0v---------------------------
-3-3-3-3---3-3-3-3---3-3-3-3---3-3-3-3--3-3-3-3--2v---------------------------
-2-2-2-2---2-2-2-2---2-2-2-2---2-2-2-2--3-3-3-3--2v---------------------------
-0-0-0-0---0-0-0-0---0-0-0-0---4-4-4-4--0-3-3-3--2v---------------------------
------------------------------------------------------------------------------
------------------------------------------------------------------------------
 This is the chorus. Repeat it twice, then repeat everything again.           

Comments