Rachel Stamp - Spank Chords & Tabs

 

Spank Chords & Tabs

Rachel Stamp Chords & Tabs

Version: 2 Type: Bass Tab 0 ratings
1 star 2 stars 3 stars 4 stars 5 stars
comments

Spank Bass Tab

Rachel Stamp - Spank from the Hymns for Strange Children album

*my first tab* but i'm pretty sure its ok (just added the bridge so
song is now complete)

^ = slide

Main Riff:

G --------------------------------------------------------|
D --------------------------------------------------------|
A --2-2-----0-2-2-----3-2-2-----0-2-2-----3-2-2-----0-2-2-|
E ------2-2-------2-2-------2-2-------2-2-------2-2-------|

repeat throughout song
[ Tab from: http://www.guitartabs.cc/tabs/r/rachel_stamp/spank_btab_ver_2.html ]
then during guitar bit:

G --------------------------------------------------------|
D --------------------------------------------------------|
A -----------------1-1-1-1-1-1-1-1------------------------|
E -0-0-0-0-0-0-0-0----------------------------------------|

It's the same throughout the whole song except for this bridge during
the quiet bit which goes:

G -----------------------|
D --------5--3--2^3^2----|
A -----3-----------------|
E --1--------------------|

have fun

*mikey*
Comments