Rachel Stamp - Permanent Damage Chords & Tabs

 

Permanent Damage Chords & Tabs

Rachel Stamp Chords & Tabs

Version: 1 Type: Bass Tab 0 ratings
1 star 2 stars 3 stars 4 stars 5 stars
comments

Permanent Damage Bass Tab

   
Song: Permanent Damage
Artist: Rachel Stamp
Album: Oceans of Venus
Tabbed By: Molly Peers

the bass is real hard to pick out on this track
but its right i think other than any chords
ryder-prangley might be playing
xx
its grouped in 4s so its easier to read, and has no
reflection on the timing


1)
E-----------------------------------------|
A-4444-4444-4444-4444-7777-7777-7777-7777-|
D-----------------------------------------|
G-----------------------------------------|

2)
E---------------------------------------|
A-4444-4442-4477-66-7777-7777-7777-7777-|
D---------------------------------------|
G---------------------------------------|
[ Tab from: http://www.guitartabs.cc/tabs/r/rachel_stamp/permanent_damage_btab.html ]
3)
E---------------------0-0--0-0--0-0--0-0--|
A-4444-4444-4444-4444---------------------|
D------------------------2----2----2----2-|
G-----------------------------------------|

4)
E-4-5----2-4-5-5-|
A----4-2---------|
D----------------|
G----------------|

5)
E----------------000----------------|
A-2222-2222-0000-----2222-2222-0000-|
D-----------------------------------|
G-----------------------------------|

6)
E-4-4------------2-2-4-4-55-55-55-|
A-----0-0-4-4-2-2-----------------|
D---------------------------------|
G---------------------------------|

1) x1
2) x1
3) x2
4) x1
1) x1
2) x1
3) x2
4) x1
1) x1
2) x2
1) x1
5) x2
6) x1
1) x1
2) x1
1) x1
2) x1
1) x1
Comments