Rachel Stamp - Brand New Toy Chords & Tabs

 

Brand New Toy Chords & Tabs

Rachel Stamp Chords & Tabs

Version: 1 Type: Bass Tab 0 ratings
1 star 2 stars 3 stars 4 stars 5 stars
comments

Brand New Toy Bass Tab

Hey guys, esp. mikey, the rachel stamp tabber :p
This tab is rightish, but if its not, mail me at
Mollykins13@hotmail.com
the only bit that i think could be wrong is part 8
Love to u all, and mikey, if u have msn please add me
thank u
x

D- -------0-6-0-6-0-0-6-0   \  /     /|
A- 3-3-4/5---------------    \/     / |
D- ----------------------    /\    /__|_
G- ----------------------   /  \      |


D- -------  \  /     /|
A- 3-3-4/5   \/     / |
D- -------   /\    /__|_
G- -------  /  \      |


D- 0-0-3-3-5-5----  \  /     /|
A- ------------1-1   \/     / |
D- ---------------   /\    /__|_
G- ---------------  /  \      |


D- -------0-6-0-6-0-0-6-0   \  /     /|
A- 3-3-4/5---------------    \/     / |
D- ----------------------    /\    /__|_
G- ----------------------   /  \      |


D- -------  \  /   __---__
A- 3-3-4/5   \/   |   --__
D- -------   /\    -----__
G- -------  /  \  |___--__

[ Tab from: http://www.guitartabs.cc/tabs/r/rachel_stamp/brand_new_toy_btab.html ]
D- 0-0-3-3-5-5----  \  /     /|
A- ------------1-1   \/     / |
D- ---------------   /\    /__|_
G- ---------------  /  \      |


D- -------0-6-0-6-0-0-6-0   \  /   |
A- 3-3-4/5---------------    \/    |
D- ----------------------    /\    |
G- ----------------------   /  \   |


D- --------   \  /     /|
A- --------    \/     / |
D- 10-9-8-9    /\    /__|_
G- --------   /  \      |


D- -------  \  /     /|
A- 3-3-4/5   \/     / |
D- -------   /\    /__|_
G- -------  /  \      |


D- 0-0-3-3-5-5----  \  /     /|
A- ------------1-1   \/     / |
D- ---------------   /\    /__|_
G- ---------------  /  \      |


D- 2-2-5-5--------   \  /    __---__
A- --------0-0-3-3    \/    |__---__
D- ---------------    /\    |   --__
G- ---------------   /  \   |___--__


D- 0-0-3-3-5-5----  \  /     /|
A- ------------1-1   \/     / |
D- ---------------   /\    /__|_
G- ---------------  /  \      |


D- -------0-6-0-6-0-0-6-0   \  /     /|
A- 3-3-4/5---------------    \/     / |
D- ----------------------    /\    /__|_
G- ----------------------   /  \      |
Comments