Ra - Fallen Rock Zone Chords & Tabs

 

Fallen Rock Zone Chords & Tabs

Ra Chords & Tabs

Version: 1 Type: Bass Tab 0 ratings
1 star 2 stars 3 stars 4 stars 5 stars
comments

Fallen Rock Zone Bass Tab

Tuning:  step down

Intro
|-------------------------------|
|--65h6p5/3--5-7-8---------/10--|
|------------3-5-63-5/8-3------|
|-------------------------------|

Chorus
|------------------5-|
|--------------3h5---|
|-3-33-43-3333-------|
|--------------------|

Verse1 2x
|------------------------6-------------------------5-|
|------------------------6-------------------------5-|
|-33333-33333-33333-333334-33333-33333-33333-33333-3-|
|----------------------------------------------------|    

Chorus 
Verse2 
Chorus 
Intro 

Bridge
|------------------------|
|---------------/10----3-|
|-3563-5/8-3----3h5---|
|------------------------|
[ Tab from: http://www.guitartabs.cc/tabs/r/ra/fallen_rock_zone_btab.html ]
|----------------------------|
|----------------------------|
|-3563-5/8-3-xx3-xx3-3333-|
|----------------------------|   

|-----------------------------|
|---------------/10-6-5h6p5/3-|
|-3563-5/8-3---------------|
|-----------------------------|  

|----------------------------|
|----------------------------|
|-3563-5/8-3-xx3-xx3-3333-|  
|----------------------------|

|------------------------6-------------------------5-|
|------------------------6-------------------------5-|
|-33333-33333-33333-333334-33333-33333-33333-33333-3-|
|----------------------------------------------------|    

|---------------------------6--------------------------------------|
|-----/10----/8-----/7------6-------/10------/9----/6--------------|
|3333----3333---3333---333334---3333----3333---3333---3333--3-3-3--|
|------------------------------------------------------------------| 

Chorus
Comments