Ra - Do You Call My Name Chords & Tabs

 

Do You Call My Name Chords & Tabs

Ra Chords & Tabs

Version: 9 Type: Tab 0 ratings
1 star 2 stars 3 stars 4 stars 5 stars
comments

Do You Call My Name Tab

   
Tab by Edin
Ra-Do you call my name
Tuning d a f c g c

I left out some parts but still these are most of the song.

Intro: Starts at 00:40
D|------------------------------------------------|----------|  
A|------------------------------------------------|----------|
F|------------------------------------------------|----------|
C|-5-4--8-----5-4--8-9-11-----5-4--8---5-4--0-1-2-|--5-4--8--|
G|-5-4--8-----5-4--8-9-11-----5-4--8---5-4--0-1-2-|--5-4--8--|
C|-5-4--8-----5-4--8-9-11-----5-4--8---5-4--0-1-2-|--5-4--8--|

Chorus:
D---------------------------------------------------------
A---------------------------------------------------------
F-14-14-13-13--11-------7-7--6-6--11----------------------Repeat 2x
C--x--x--x--x---x 2X---x-x--x-x---x2x-------------------
G-12-12-11-11---9-------5-5--4-4---9----------------------
C---------------------------------------------------------
Verse:
D--------------------------------------------------------------
A--------------------------------------------------------------
F--------------------------------------------------------------
C-5---4-4-4-4--4-4-4-54-4-4-4-7/4-----------------------------
G-5---4-4-4-4--4-4-4-54-4-4-4-7/4-----------------------------
C-5---4-4-4-4--4-4-4-54-4-4-4-7/4-----------------------------

D--------------------------------------------------------------
A--------------------------------------------------------------
F--------------------------------------------------------------
C-12-12-12-----12-12-12-12-----11-11-11-11-----4-4-4-4--7------
G-12-12-12-----12-12-12-12-----11-11-11-11-----4-4-4-4--7------
C-12-12-12-----12-12-12-12-----11-11-11-11-----4-4-4-4--7------
[ Tab from: http://www.guitartabs.cc/tabs/r/ra/do_you_call_my_name_tab_ver_9.html ]
Chorus:
D---------------------------------------------------------
A---------------------------------------------------------
F-14-14-13-13--11-------7-7--6-6--11----------------------Repeat 2x
C--x--x--x--x---x 2X---x-x--x-x---x2x-------------------
G-12-12-11-11---9-------5-5--4-4---9----------------------
C---------------------------------------------------------

Verse:
D--------------------------------------------------------------
A--------------------------------------------------------------
F--------------------------------------------------------------
C-5---4-4-4-4--4-4-4-54-4-4-4-7/4-----------------------------
G-5---4-4-4-4--4-4-4-54-4-4-4-7/4-----------------------------
C-5---4-4-4-4--4-4-4-54-4-4-4-7/4-----------------------------






D--------------------------------------------------------------
A--------------------------------------------------------------
F--------------------------------------------------------------
C-12-12-12-----12-12-12-12-----11-11-11-11-----4-4-4-4--7------
G-12-12-12-----12-12-12-12-----11-11-11-11-----4-4-4-4--7------
C-12-12-12-----12-12-12-12-----11-11-11-11-----4-4-4-4--7------
Intro:
D|------------------------------------------------|----------|  
A|------------------------------------------------|----------|
F|------------------------------------------------|----------|
C|-5-4--8-----5-4--8-9-11-----5-4--8---5-4--0-1-2-|--5-4--8--|
G|-5-4--8-----5-4--8-9-11-----5-4--8---5-4--0-1-2-|--5-4--8--|
C|-5-4--8-----5-4--8-9-11-----5-4--8---5-4--0-1-2-|--5-4--8--|

D--------------------------------------------------------------
A--------------------------------------------------------------
F--------------------------------------------------------------
C-12-12-12-----12-12-12-12-----11-11-11-11-----4-4-4-4--7------
G-12-12-12-----12-12-12-12-----11-11-11-11-----4-4-4-4--7------
C-12-12-12-----12-12-12-12-----11-11-11-11-----4-4-4-4--7------

Chorus:
D---------------------------------------------------------
A---------------------------------------------------------
F-14-14-13-13--11-------7-7--6-6--11----------------------Repeat 4x
C--x--x--x--x---x 2X---x-x--x-x---x2x-------------------
G-12-12-11-11---9-------5-5--4-4---9----------------------
C---------------------------------------------------------

Outro:
D|------------|
A|------------|
F|------------|
C|--7--9------|
G|--7--9------|
C|--7--9------|
Comments