Ra - Do You Call My Name Chords & Tabs

 

Do You Call My Name Chords & Tabs

Ra Chords & Tabs

Version: 5 Type: Tab 0 ratings
1 star 2 stars 3 stars 4 stars 5 stars
comments

Do You Call My Name Tab

This tab is for the long version(the one with the long intro)
This song is played in standard tuning (EADGBE)
Any questions or comments email me...dabomb8422@rcn.com

Palm Mute=........................


Intro
               3x                       Last time
|---------00-0----------00--|-----00-0-------00-0------------|
|-------0---0--0-------0----|---0---0-0-----0--0-0-----------|
|-----4---------------4---3-|--4-----------4-----------------|
|---2----------------2------|-2-----------3------------------|
|---------------------------|--------------------------------|
|---------------------------|--------------------------------|

Heavy Part
                  2 or 3 x
|-----------------------------------------------|
|-----------------------------------------------|
|-----------------------------------------------|
|----------------------------------4-5----------|
|----------------------------------2-3----------|
|--1p0--4--1p0--456--1p0--4--1p0---2-3--1p0-----|


          Last Time
|----------------------------------------------|
|----------------------------------------------|
|----------------------------------------------|
|--------------------------------4-5-----------|
|--------------------------------2-3-----5-8---|
|-1p0--4--1p0--456--1p0--4--1p0--2-3--1--3-6---|
                      (Let last two chords ring)


|------------------------------------------------|
|------------------------------------------------|
|-----12-12p11-11------11----12-12p11-11------11-|
|------------------------------------------------|
|------------------------------------------------|
|--00-------------0000----00-------------0000----|
   ..             ....    ..             .... 

[ Tab from: http://www.guitartabs.cc/tabs/r/ra/do_you_call_my_name_tab_ver_5.html ]
|-------------------------------------------------|
|-------------------------------------------------|
|------10-10p9-9------9----10-10p9-9------9-------|
|-------------------------------------------------|
|-------------------------------------------------|
|---00-----------0000---00-----------0000---------|
    ..           ....   ..           ....

Verse

|------------------------------||
|------------------------------||
|------------------------------||
|-------------------------3----||
|-------2-22-2------2-22--1----||
|--1p0--0-00-0--3p0-0-00-------||
 

Verse 2
|------------------------------|
|------------------------------|
|------------------------------|
|--5555--5555--4444------------|
|--3333--3333--2222--2222--5---|
|--------------------0000--3---|

|-------------------------------|
|-------------------------------|
|-------------------------------|
|-5555--5555--4444--------------|
|-3333--3333--2222--2222222-2---|
|-------------------0000000-0---|
                    ....... .
Then you go back into Verse 2, and on the last time, play:

|--------------------------------|
|--------------------------------|
|--------------------------------|
|--5555--5555--4444--------------|
|--3333--3333--2222--22222--2-5--|
|--------------------00000--0-3--|

At 2:46 you play:

|------|
|------|
|------|
|--4---|
|--2---|
|--2---|




At 3:18:


|------------------------------------|
|---1--0---1---0----1---0----3--1----|
|----2--2---2---2-2--2---2-------2---|
|-2------2---2---2----2---2-------2--|
|-0----------------------------------|
|------------------------------------|

|-------------------0---0---0---0----
|---1--0---1---0-----3---3---3---3---
|----2--2---2---2-----2---2---2---2--
|-2------2---2---2-------------------
|-0----------------------------------
|------------------------------------


^^^^THiS iS the Am Chord

Thats it...hope you enjoy :D
Comments