Ra - Do You Call My Name Chords & Tabs

 

Do You Call My Name Chords & Tabs

Ra Chords & Tabs

Version: 2 Type: Tab 0 ratings
1 star 2 stars 3 stars 4 stars 5 stars
comments

Do You Call My Name Tab

Ra
Do you call my name
Satndard tuning

main riff
firstpart
----------------------
----------------------
-12-12-12-x-11-x-x-11-
-x--x--x--x--x-x-x-x--
-10-10-10-x--9-x-x-9--
----------------------
secondpart
-----------------
-----------------
-5-5-5-x-4-x-x-4-
-x-x-x-x-x-x-x-x-
-3-3-3-x-2-x-x-2-
-----------------
[ Tab from: http://www.guitartabs.cc/tabs/r/ra/do_you_call_my_name_tab_ver_2.html ]
main riff2
firstpart
----------------------
----------------------
-12-12-12-x-11-x-x-11-
-x--x--x--x--x-x-x-x--
-10-10-10-x--9-x-x-9--
----------------------
secondpart
--------------------
--------------------
-5-5-5-x-4-x-x-4-10-
-x-x-x-x-x-x-x-x-x--
-3-3-3-x-2-x-x-2-8--
--------------------

Solo PART
-------|-----------
-------|-----------
-------|-----------
-3-2-6-|-3-2-6-7-9-2X
-3-2-6-|-3-2-6-7-9-
-------|-----------

-------|-----------
-------|-----------
-------|-----------
-3-2-6-|-3-2-6-7-9-
-3-2-6-|-3-2-6-7-9-
-3-2-6-|-3-2-6-7-9-

Thats basically the whole song if you want to tab the rest do it your
self its on the radio all the time. Alrite peace out
Comments