R Kelly - If I Could Turn Back The Hands Of Time Chords & Tabs

 

If I Could Turn Back The Hands Of Time Chords & Tabs

R Kelly Chords & Tabs

Version: 1 Type: Bass Tab 0 ratings
1 star 2 stars 3 stars 4 stars 5 stars
comments

If I Could Turn Back The Hands Of Time Bass Tab

Artist: R Kelly
Song: If I could turn back the hands of time
Tabbed by: Dan Rowden

Verse/Chorus:
G|---------|---------|---------|---------|
D|---------|---------|---------|---------|
A|---------|---------|---------|---------|
E|-4-------|-4-------|-1-------|-1-------|
   1 2 3 4   1 2 3 4   1 2 3 4   1 2 3 4

G|---------|---------|---------|---------|
D|---------|---------|---------|---------|
A|-4-------|-4-------|-1-------|---------|
E|---------|---------|---------|-3-------|
   1 2 3 4   1 2 3 4   1 2 3 4   1 2 3 4
[ Tab from: http://www.guitartabs.cc/tabs/r/r_kelly/if_i_could_turn_back_the_hands_of_time_btab.html ]
Fill:
(If I had enough love...)
G|---------|---------|---------|---------|
D|---------|---------|---------|---------|
A|---------|---------|---------|---------|
E|-1-------|-3-------|-4-------|-4-------|
   1 2 3 4   1 2 3 4   1 2 3 4   1 2 3 4

G|---------|---------|---------|---------|
D|---------|-1-------|-3---1---|---------|
A|-4-------|---------|---------|-4-------|
E|---------|---------|---------|---------|
   1 2 3 4   1 2 3 4   1 2 3 4   1 2 3 4

G|---------|---------|---------|---------|
D|---------|---------|-1-------|---------|
A|---------|---------|---------|---------|
E|-1-------|-1-------|---------|-3-------|
   1 2 3 4   1 2 3 4   1 2 3 4   1 2 3 4


Any comments or suggestions? danrowden@aol.com
Visit bass tabs uk at http://listen.to/basstabsuk

Comments