R Kelly - Hotel Chords & Tabs

 

Hotel Chords & Tabs

R Kelly Chords & Tabs

Version: 1 Type: Tab 0 ratings
1 star 2 stars 3 stars 4 stars 5 stars
comments

Hotel Tab

   
----------------------------------------------------------------------------
			     Hotel - Cassidy Ft. R.Kelly
----------------------------------------------------------------------------
Tabbed by:Konrad Kosieniak-Madejski
Email:

Tuning:EADGBe
[ Tab from: http://www.guitartabs.cc/tabs/r/r_kelly/hotel_tab.html ]
e|-0-------3---------------------------------------------------------------|
B|-1-------0-0-0-0-1-------------------------------------------------------|
G|-2-2-2-2-0---------0--------2--------------------------------------------|
D|-2-------0------------------3-3-3-2-0------------0-----------------------|
A|-0-------2------------------3---------3--2-2-2-3-------------------------|
E|-------------------------------------------------------------------------|


| /  slide up
| \  slide down
| h  hammer-on
| p  pull-off
| ~  vibrato
| +  harmonic
| x  Mute note
============================================================================
Comments