Quicksand - Unfulfilled Chords & Tabs

 

Unfulfilled Chords & Tabs

Quicksand Chords & Tabs

Version: 1 Type: Tab 0 ratings
1 star 2 stars 3 stars 4 stars 5 stars
comments

Unfulfilled Tab

#----------------------------------PLEASE NOTE--------------------------------#
#This file is the author's own work and represents their interpretation of the#
#song. You may only use this file for private study, scholarship, or research.#
#-----------------------------------------------------------------------------#
Date: Tue, 28 Apr 1998 14:15:36 -0400
From: Gregg 
Subject: q/quicksand/unfulfilled.tab
TAB:	   Unfulfilled
ARTIST:  Quicksand
ALBUM:   Slip
Transcribed by:  G.Meluski
   Main Riff                                                                            
E-|-------------------------------|
B-|-------------------------------|
G-|-------------------7-----------|
D-|---2h4---x-x-x-x-x-7----7b//2--|
A-|---2h4---x-x-x-x-x-5----7b//2--|
D-|---2h4---x-x-x-x-x------7b//2--|
                                                                               
   Chorus                                                                            
E-|------------------------------------------------|
B-|------------------------------------------------|
G-|------------------------------------------------|
D-|------------------------------------------------|
A-|---------1--------2------1/2--------1--------2--|
D-|---2h4-4----2h4-4----2h4------2h4-4----2h4-4----|
                                                                               
   Harmonics during second verse                                                                               
E-|----------------------------------------------------------|
B-|------------------------------|
G-|------------------------------|
D-|----------------------------------------------------------|
A-|----------------------------------------------------------|
D-|----------------------------------------------------------|
                                                                               
   Interlude ('All things fall through. . .')                                                                               
E-|-------------------------------------|
B-|-------------------------------------|
G-|-------------------------------------|
D-|---4--4-2-------4-4--4-4-4-7-7-7-7---|
A-|---4--4-2-------4-4--4-4-4-7-7-7-7---|
D-|---4--4-2-------4-4--4-4-4-7-7-7-7---|
send comments to:  melusk2@cybercomm.net

[ Tab from: http://www.guitartabs.cc/tabs/q/quicksand/unfulfilled_tab.html ]
Comments