Queers - Nuni In New York Chords & Tabs

 

Nuni In New York Chords & Tabs

Queers Chords & Tabs

Version: 1 Type: Bass Tab 0 ratings
1 star 2 stars 3 stars 4 stars 5 stars
comments

Nuni In New York Bass Tab

-------------------------------------------------------------------------------
			     nuni in new york - the queers
-------------------------------------------------------------------------------

By:christopher taylor

G|---------------------------------------------------------------------------|
D|---------------------------------------------------------------------------|
A|---------------------------------------------------------------------------|
E|---7-7-7-7-7---------------------------------------------------------------|
[ Tab from: http://www.guitartabs.cc/tabs/q/queers/nuni_in_new_york_btab.html ]
G|---------------------------------------------------------------------------|
D|---------------------------------------------------------------------------|
A|--7---5--------------------------------------------------------------------|
E|----3---5------------------------------------------------------------------|

G|---------------------------------------------------------------------------|
D|---------------------------------------------------------------------------|
A|---------------------------------------------------------------------------|
E|--2------------------------------------------------------------------------|

Comments