Queensryche - Two Miles High Chords & Tabs

 

Two Miles High Chords & Tabs

Queensryche Chords & Tabs

Version: 2 Type: Tab 0 ratings
1 star 2 stars 3 stars 4 stars 5 stars
comments

Two Miles High Tab

#----------------------------------PLEASE NOTE--------------------------------#
#This file is the author's own work and represents their interpretation of the#
#song. You may only use this file for private study, scholarship, or research.#
#-----------------------------------------------------------------------------#
#-- File created with Instab - http://www.pconline.com/~smcarey/instab.html --#
#-----------------------------------------------------------------------------#

Author/Artist: Queensryche
Title: Two Miles High
Album: Promised Land CD-ROM Game
Transcribed by: Raven
Email: grans@earthlink.net

This is the song at the end of the "Promised Land" game, where the band plays a song to reward you for 
the quest. Thanks to Sacred Ground's Queensryche Emporium, from which the sites Real Audio Archive I was able 
transcribe this wondeful tune. Obviously, you can strum the chords however you wish. If somebody out there has the MP3 for this song, please, I would be ever so greatful if you send me a copy.  RYCHE ON!!

---------7-------------7-/-8---------5------------5-h-7-p-5--------3----------|
-------0---------------------------6------------------------------4-----------|
-----5-------------5-------------0-------------------------------0------------|
---5---------------------------0----------------------------------------------|
------------------------------------------------------------------------------|
------------------------------------------------------------------------------|
 intro

-3-3--3-3--3-3--3-3--3-3---|---7-7-7-7-7---8--8-8---10-10-10-10-10---8--8-8---|
-4-4--4-4--4-4--4-4--4-4---|*--3-3-3-3-3---5--5-5---7--7--7--7--7----5--5-5-*-|
-0-0--0-0--0-0--0-0--0-0---|---0-0-0-0-0---0--0-0---0--0--0--0--0----0--0-0---|
---------------------------|---0-0-0-0-0---0--0-0---0--0--0--0--0----0--0-0---|
---------------------------|*-----------------------------------------------*-|
---------------------------|--------------------------------------------------|
                             main riff- played during first verse

-0--0--0--0--0----0--0--0--0--0--|-7---7--7----7--7---7--7--------------------|
-5--5--5--5--5----3--3--3--3--3--|-3---3--3----3--3---3--3------*-------------|
-3--3--3--3--3----3--3--3--3--3--|-0---0--0----0--0---0--0--------------------|
-0--0--0--0--0----0--0--0--0--0--|-0---0--0----0--0---0--0--------------------|
---------------------------------|------------------------------*-------------|
---------------------------------|--------------------------------------------|
 altered vision . . .             there . . . ending 1

---0-h2--2--2--2-h3--3--3--3-h5-5--5--5--5------------------------------------|
---3--3--3--3--3--3--3--3--3-3--3--3--3--3------------------------------------|
---2--2--2--2--2--2--2--2--2-2--2--2--2--2------------------------------------|
---0--0--0--0--0--0--0--0--0-0--0--0--0--0------------------------------------|
------------------------------------------------------------------------------|
------------------------------------------------------------------------------|
 to share . . . ending 2

------------------------------------------------------------------------------|
-------------------3-p0-----0-----------0-----------0------------0-----0------|
-------------------------2-----------0-----------2------------5-----2---------|
---------------0---------------0--5--------0--3------------0------------------|
------------------------------------------------------------------------------|
------------3-------------------------------------------3---------------------|
 were going up
[ Tab from: http://www.guitartabs.cc/tabs/q/queensryche/two_miles_high_tab_ver_2.html ]
-------------------0--|------------|---3--1------1-------3-------3------7-----|
----------0----------*|------------|---3--4------4-------6-------6------3-----|
-------0--------------|------------|---0--3------3-------5-------5------0-----|
-0-h5--------0--3-----|-0-h5---5---|---0--1------1-------3-------3------0-----|
---------------------*|------2-----|---2--------------------------------------|
----------------------|----------3-|---3--------------------------------------|
 end# 1                 end #2        guitar solo backing

---7------1------1------3------3------------------1-------3-------------------|
---3------4------4------6------6------3-----------4-------6-------------------|
---0------3------3------5------5------2-----------3-------5-------------------|
---0------1------1------3------3--3---0-----------1-------3-------------------|
------------------------------------------------------------------------------|
------------------------------------------------------------------------------|
                                                                to main riff

-------15---------------------------------------------------------------------|
-------------13v----11---13---13b15----r13p--11--13v-----11h13p11--8v---------|
---12-------------------------------------------------------------------------|
------------------------------------------------------------------------------|
------------------------------------------------------------------------------|
------------------------------------------------------------------------------|
 Electric Solo

------------------------------------------------------------------------------|
------13------13---11v------10---\--6-----------------------------------------|
-/10------/10----------------------------7b8r7b8r7b8r7v-----------------------|
---------------------------------------------------------------5-p-3-h-5------|
------------------------------------------------------------------------------|
------------------------------------------------------------------------------|


------------------------------------------------------------------------------|
--8---6-----------------------------------------------------------------------|
------------0--------\/----\/---\/---\/---\/---\/-----------------------------|
------------------------------------------------------------------------------|
------------------------------------------------------------------------------|
------------------------------------------------------------------------------|
                   hit bar gently for "wave" effect

----8--p--7-----5---------------10---10------8-p-7---5---------7--7-----------|
--------------------------10--12-----12--------------------7--8---8-----------|
------------------------------------------------------------------------------|
------------------------------------------------------------------------------|
------------------------------------------------------------------------------|
------------------------------------------------------------------------------|
 Acoustic Solo

-----------0------------------------------------------------------------------|
-3--/--5---3------------------------------------------------------------------|
------------------4-/-5--4--2--5v-----5--4----0--2-----------------7----------|
----------------------------------------------------4--5v----7--9-----9--7----|
------------------------------------------------------------------------------|
------------------------------------------------------------------------------|


---------------------3--------------------------------------------------------|
---------------------0--------------------------------------------------------|
---------------------0--------------------------------------------------------|
-7---5-h-7--4--\--2--0--------------------------------------------------------|
---------------------2--------------------------------------------------------|
---------------------3--------------------------------------------------------|

h  - hammer on
p  - pull off
* - trill
b  - bend (use tremolo bar for downbend)
r  - release bend
/  - slide up
\  - slide down
v  - vibrato
t  - tap (with strumming hand)
x  - fret-hand muting
^ -  natural harmonics
ph- artificial (pinch) harmonics
PM palm mute
                    -\----------/-----------------------------|
Lines going diagonally up and down   --\--------/-------------|
These mean whammy bar                     --\------/----------|
          -                                    --\----/-------|
\ - bar down
/- bar up
Comments