Queensryche - Sign Of The Times Chords & Tabs

 

Sign Of The Times Chords & Tabs

Queensryche Chords & Tabs

Version: 1 Type: Bass Tab 0 ratings
1 star 2 stars 3 stars 4 stars 5 stars
comments

Sign Of The Times Bass Tab

Queensryche - Sign of the Times
letostak@ix.netcom.com (Judy Letostak)
The Music Shop BBS (619)423-4970
1:202/1109 (FidoNet)

http://www.netcom.com/~letostak/musicshp.html

Tune Down 1/2 Step


------------------------------------------------
-----------------------------10---10-10-10-10---
-12--12--12--12--12--10-----------------------10
-------------------------12---------------------


------------------------------------------------
------------------------------------------------
------------------------------------------------
12--13----12---13\------------------------------

2x====================================
------------------------------------------------
------------------------------------------------
------------------------------------------------
-5-5-5-5---5-5-5-5---5-5-5-5---5-5-5-5----------

=============
------------------------------------------------
------------------------------------------------
------------------------------------------------
-5-5-5-5-5-3------------------------------------


Verses

------------------------------------------------
------------------------------------------------
------------------------------------------------
-5--5--5--5---5--5--5--5---5--5--5--5---5-5-5-5-


------------------------------------------------
------------------------------------------------
------------------------------------------------
-5-5-5-5-5-3----5-5-5-5--5-5-5-5--5-5-5-5-------


------------------------------------------------
------------------------------------------------
------------------------------------------------
-5-5-5-5--5-5-5-5-5-3-----3-3-3-3-3---x-3-3-3-3-


------------------------------------------------
------------------------------------------------
------------------------------------------------
-3-3-3----1-1-1-1-1--x-1-1-1-1-1--0h1/5-5-5-5---


------------------------------------------------
------------------------------------------------
------------------------------------------------
-5-5-5-5--5-5-5-5--5-5-5-5--5-5-5-5-5-3---------

                             Chorus
------------------------------------------------
------------------------------------------------
-------------------------------------------3----
1--1-1-1-1---x-1-1-1-1-1--0h1/5--5-5-5-3-0------


------------------------------------------------
------------------------------------------------
-3--3--3------------------------3---3--3--3--3--
----------3---5--5--5--5--3--0------------------


------------------------------------------------
------------------------------------------------
--------------------------3---3--3--3--3--------
-3---5--5--5--5--5--3--0------------------3-----


------------------------------------------------
------------------------------------------------
--------------------3---3--3--3--3--------------
--5--5--5--5--3--0------------------3-----------

Lead

------------------------------------------------
------------------------------------------------
------------------------------------------------
--3--3-3-3-3--3-3-3-3--3-3-3-5--6-6-6-6-6---6--6


------------------------------------------------
------------------------------------------------
------------------------------------------------
-6-6-6-6---5--5-5-5-5-5-5---5-5---5--5--5--5----


------------------------------------------------
------------------------------------------------
------------------------------------------------
-4---4--4--4--4--0--4---4--4--4--4--4--4\-------


------------------------------------------------
------------------------------------------------
------------------------------------------------
-3-3-3--3-3-3--0-3-3-3-3-3-3-3-3-5---6--6-6-6-6-


------------------------------------------------
------------------------------------------------
------------------------------------------------
-6-6--6-6-6-6-6-6-6--5--5-5-5-0-5--5--5--5-5-5-5

------------------------------------------------
------------------------------------------------
-------------7/11-11-11-11-11-11-11-11--10p8----
-4--4-4-4-4-------------------------------------


------------------------------------------------
------------------------------------------------
--10p7---10p6\14--22p15p14----------------------
-----------------------------15\----------------
  t      t        t

------------------------------------------------
------------------------------------------------
-12-12-12-12-12-10---12---12-12---12--10--------
------------------------------------------12\---

Bridge

------------------------------------------------
------------------------------------------------
------------------------------------------------
-1--1--1--1--1--1--1--3--3--3--3--3--3--3--3----


------------------------------------------------
------------------------------------------------
------------------------------------------------
-6--6--6--6--6--6--6--5--5--5--5--5--5--5--5----


------------------------------------------------
------------------------------------------------
------------------------------------------------
-4--4--4----4--4--4----4--4--4---3--3--3--3--3--


------------------------------------------------
------------------------------------------------
------------------------------------------------
-3--3---3--3--3--3---1--1--1--1--1--1--1--1--1--


------------------------------------------------
------------------------------------------------
--------6--------6---6--6--6--6--6--6-----------
-1--1------6--6---------------------------------

End

------------------------------------------------
------------------------------------------------
------------------------------------------------
3-----------3----------------3--------3---------fade




The Music Shop BBS (619)423-4970  (San Diego, CA  USA)
Over 10,000 Guitar Tabs, pictures, construction docs, lessons,
interviews, sound files, lyrics, programs. Over 1,000 Bass tabs
Also, free support for unsigned/indie bands email me a bio,
lyrics, pictures gig info, demo info sound files etc.,

http://www.netcom.com/~letostak/musicshp.html
download mansi.zip for monthly ansi art/music packs.
download metnet.zip for MetalNet info pak
===========================================================
h = hammeron                          ps = pick scrape
p = pulloff                           % = repeat phrase
~ = vibrato                           letostak@ix.netcom.com
b = bend                              + natural harmonic
/\ = Slide
* = Artificial Harmonic
x = ghost note

tr = trill
===========================================================
^Z

letostak@ix.netcom.com
The Music Shop BBS (619)423-4970  Over 10,000 guitar/bass
tab.  3.7Gigs of music files 4cdroms online, 24/7 access

http://www.netcom.com/~letostak/musicshp.html
download MANSI.ZIP for montly ansi/tab releases.
>From letostak@ix.netcom.com Sat Jun 14 12:16:57 1997
Date: Sat, 24 May 1997 12:47:04 -0500 (CDT)
From: letostak@ix.netcom.com
To: guitar@olga.net
Subject: TAB:  Queensryche - Sign of the Times

Queensryche - Sign of the Times
letostak@ix.netcom.com (Judy Letostak)
The Music Shop BBS (619)423-4970
1:202/1109 (FidoNet)

http://www.netcom.com/~letostak/musicshp.html

Tune Down 1/2 Step

Intro
-----------------3--3--3--3------------------------------
-----------------3--3--3--3----------6-----6-------------
--2--2--2--------0--0--0--0----------5-----5-------------
--2--2--2----------------------------3-----3\2-----------
--0--0--0--------3--3--3--3------------------------------
-----------3--0--------------3----0-----0---------------- 


---------------------------------------------------------
---------------------------------------------------------
-2--2-2--2---2--2--2--2---2--2--2--2---------------------
-2--2-2--2---2--2--2--2---2--2--2--2---------------------
-0--0-0--0---0--0--0--0---0--0--0--0---------------------
--------------------------------------------------------- 


Continue with A and 2nd guitar plays below

---------------------------------------------------------
----------------8b(10)----8~~~-------(8)\2---------------
--6b(7)--6-----------------------------------------------
------------5--------------------------------------------
---------------------------------------------------------
--------------------------------------------------------- 

1st & 2nd Verse
---------------------------------------------------------
------------------8b(10)----------8~------\2-------------
----6b(7)--6---------------------------------------------
--------------5------------------------------------------
---------------------------------------------------------
--------------------------------------------------------- 


---------------------------------------------------------
---------------------------------------------------------
-2--2--2--2----2----2--2--2--2---------------------------
-2--2--2--2----2----2--2--2--2---------------------------
-0--0--0--0----0----0--0--0--0---0-----------------------
------------------------------------3-------------------- 

[ Tab from: http://www.guitartabs.cc/tabs/q/queensryche/sign_of_the_times_btab.html ]
-----3--3--3--3-----3--3--3--3-----3--3------------------
-----3--3--3--3-----3--3--3--3-----3--3--------1--1--1--1
-----0--0--0--0-----0--0--0--0-----0--0--------0--0--0--0
-----0--0--0--0-----0--0--0--0-----0--0--------0--0--0--0
---------------------------------------------------------
--3--------------3--------------3-----------1------------ 

                               5x========
---------------------------------------------------------
-------1-------------------------------------------------
-------0---2---2p0---2--0------2--2--2--2----------------
-------0-----------------------2--2--2--2----------------
-------------------------------0--0--0--0----------------
-3--1------------------------------------------3--------- 


2nd Verse (Play 1st Verse rhythm)


Bridge
----8---------8------8--------------10----10-------------
----8------8---------8----------10--10----10------0------
---10--10--------10------10/12--12------------12---------
---10--------------------10/12----------------12---------
----8----------------------------------------------------
--------------------------------------------------------- 


------------0----------0---0---0--0-------0--0---------5-
---8-----------8----8----------0----------0--0------6----
---9-----------7-----------5---5------4----------5-------
--10---10------9-----------7---7------5------------------
--------------------------------------5------------------
--------------------------------------------------------- 


-------------7-------------------------------------------
--6-------8-----8---8------------------------------------
-----5/7-------------------------------------------------
---------------------------------------------------------
---------------------------------------------------------
--------------------------------------------------------- 


|--------------------------------------------------------
|-6-----------8----5--5------/6----/8----\---------------
|-----6/7--7---------------------------------------------
|--------------------------------------------------------
|--------------------------------------------------------
|-------------------------------------------------------- 
|
|
|-------------------------9--------------------------10--
|---------------10------------------8----------------10--
|------9-------------------------10---------10/12----12-12
|-----------------------------10--------10--10/12--------
|--0--------0--------0----------------8--8--------10-----
|-------------------------------------------------------- 


|--/8-------7\5-5----/8*---------------------------------
|--------------------------8\6----/9-9--9--9\------------
|--------------------------------------------------------
|--------------------------------------------------------
|--------------------------------------------------------
|-------------------------------------------------------- 
|
|
|--------0---------0--0--0--0------0---5--5--5--8--8-8-8-
|--8--------8---8------------------0---6--6--6--9--9-9-9-
|--9--------7---------5--5-----4-------5--5--5--8--8-8-8-
|-10-10-----9---------7--7-----4-------------------------
|------------------------------5-------------------------
|-------------------------------------------------------- 



Guitar Solo

-18b(20)-18--18~--15-17p15----15-------------------------
---------------------------18----18--18b(20)-rb18--18b(20)
---------------------------------------------------------
---------------------------------------------------------
---------------------------------------------------------
--------------------------------------------------------- 


---------------------------------------------------------
-18----------16p15----15---------------------------------
------15~----------17----17-15------------------15~------
-------------------------------17~--15----15-17----------
---------------------------------------17----------------
--------------------------------------------------------- 


---------------------------------------------------------
-16p15--16p15--16p15----------------16p15-----16p15-16-18
----------------------15b(16)-rb15---------15------------
---------------------------------------------------------
---------------------------------------------------------
--------------------------------------------------------- 


-----------------------------15---18b(20)-18~--18b(20)---
-18b(20)--18b(20)~~~~--rb18------------------------------
---------------------------------------------------------
---------------------------------------------------------
---------------------------------------------------------
--------------------------------------------------------- 


-18b(20)-18----------------------------------------------
-------------16~--15~------------------------------------
----------------------------15b(17)--15~--14~------------
------------------------17---------------------17\15-----
---------------------------------------------------------
--------------------------------------------------------- 

  4x=========
---------------------------------------------------------
---------------------------------------------------------
---------------------------------------------------------
-15b(17)-rb15------15\-----------------------------------end lead
---------------------------------------------------------
--------------------------------------------------------- 


---------------------------------------------------------
-------------------8b(10)---8~---\2----------------------
------6b(7)--6-------------------------------------------
--/5------------5----------------------------------------
---------------------------------------------------------
--------------------------------------------------------- 


---------------------------------------------------------
-------12--------/13---12----\---------------------------
--/12-------12\------------------------------------------
---------------------------------------------------------
---------------------------------------------------------
--------------------------------------------------------- 


---------------------------------------------------------
---------------------------------------------------------
--4b(5)---4----------------------------------------------
---------------3~~~--------------------------------------
---------------------------------------------------------
--------------------------------------------------------- 

Chorus

---------------------------------------------------------
---------------------------------------------------------
-12\0/5--5\4--0--12\0/5---0--12\0/4---0--12\0/2----------
---------------------------------------------------------
---------------------------------------------------------
--------------------------------------------------------- 


--------/5-----------------------------------------------
---------------------------------------------------------
--3\2--------2-------------------------------------------
---------------------------------------------------------
---------------------------------------------------------
--------------------------------------------------------- 

Bridge (w/Ad Lib)


End
---------------------------------------------------------
-------------------------------------13------------------
----------------------------------12----14~--------------
-------------------------12-14-15------------------------
---12--14---14-14-14--15---------------------------------
--------------------------------------------------------- 


----------------------------19--22--21-----19~---21------
----------------15----15-20-------------22-----------22--
-------------14----16------------------------------------
-12-14-15-17---------------------------------------------
---------------------------------------------------------
--------------------------------------------------------- 


-19\15---------------------------------------------------
-------17-15---fade out----------------------------------
---------------------------------------------------------
---------------------------------------------------------
---------------------------------------------------------
--------------------------------------------------------- 


The Music Shop BBS (619)423-4970  (San Diego, CA  USA)
Over 10,000 Guitar Tabs, pictures, construction docs, lessons,
interviews, sound files, lyrics, programs.
Also, free support for unsigned/indie bands email me a bio,
lyrics, pictures gig info, demo info sound files etc.,

http://www.netcom.com/~letostak/musicshp.html
download mansi.zip for monthly ansi art/music packs.
download metnet.zip for MetalNet info pak
===========================================================
h = hammeron                          ps = pick scrape
p = pulloff                           % = repeat phrase
~ = vibrato                           letostak@ix.netcom.com
b = bend                              + natural harmonic
/\ = Slide
* = Artificial Harmonic
x = ghost note
tr = trill
===========================================================
^Z

letostak@ix.netcom.com
The Music Shop BBS (619)423-4970  Over 10,000 guitar/bass
tab.  3.7Gigs of music files 4cdroms online, 24/7 access

http://www.netcom.com/~letostak/musicshp.html
download MANSI.ZIP for montly ansi/tab releases.

Comments