Queensryche - Queen Of The Reich Chords & Tabs

 

Queen Of The Reich Chords & Tabs

Queensryche Chords & Tabs

Version: 1 Type: Tab 0 ratings
1 star 2 stars 3 stars 4 stars 5 stars
comments

Queen Of The Reich Tab

 dvd version!
 
 This is a great song from queensryche on their first album
 called "queensryche ep". No-one has posted this song because
 it is hard to find a good tab of it. This is from queensryches 
 dvd live evolution,Tab copied from micheal wiltons fretboard in 
 slow-mo.                 
 
 MAIN RIFF:play fast,i have missed out the intro on the cd.
 Before the slide, scrape the pick on strings with overdrive
 on for the ufo sound on the dvd.
 


E---------------------------------------------------------------------------
B---------------------------------------------------------------------------
G--------------2-----4-----5-------5---5/7----------------------------------
D---10\\-------2-----4-----5-------5---5/7-----------repeat-----------------
A---10\\-------0-----2-----3-------3---3/5----------------------------------
E---8\\---0000---000---000-----------0--------------------------------------

[ Tab from: http://www.guitartabs.cc/tabs/q/queensryche/queen_of_the_reich_tab.html ]
 VERSES:

E---------------------------------------------------------------------------
B---------------------------------------------------------------------------
G------------2-----4-----5/7--4----------------------2----------------------
D------------2-----4-----5/7--4-----x1-then end on---2----------------------
A------------0-----2-----3/5--2----------------------0----------------------
E--000000000---000---000----------------------------------------------------

 CHORUS:

E---------------------------------------------------------------------------
B---------------------------------------------------------------------------
G----5-----7----------------------------------------------------------------
D----5-----7--x?--listen to the song for number of strums-------------------
A----3-----5----------------------------------------------------------------
E---------------------------------------------------------------------------
Comments