Queensryche - Operation Mindcrime Chords & Tabs

 

Operation Mindcrime Chords & Tabs

Queensryche Chords & Tabs

Version: 2 Type: Tab 0 ratings
1 star 2 stars 3 stars 4 stars 5 stars
comments

Operation Mindcrime Tab

#----------------------------------PLEASE NOTE--------------------------------#
#This file is the author's own work and represents their interpretation of the#
#song. You may only use this file for private study, scholarship, or research.#
#-----------------------------------------------------------------------------#
#-- File created with Instab - http://www.pconline.com/~smcarey/instab.html --#
#-----------------------------------------------------------------------------#

Author/Artist: Queensryche
Title: Operation: Mindcrime
Album: Operation: Mindcrime
Transcribed by: Raven
Email: grans@earthlink.net

----------------------------|-------------|-----------------------------------
---------------------------*|-------------|-----------------------------------
----------------------------|--4-----2----|---------------3-------------------
----------------------------|--4-----2----|---------------0--------------0----
----4-----5v------------7\-*|--2-----0----|----------4----0---------4----0----
-2-----2--------------------|-------------|--0--0--2---2------0--2-----2------
              feedback       4rth time end   then this riff                   

---|---------|------|---------------------------------------|-----------------
---|---------|------|*-------------------------------------*|-----------------
-1-|---2---1-|------|---------------------------------------|-----------------
-2-|---2---2-|--2---|---4--------7---4------4-------7----2--|-----------------
-2-|---------|--2---|*--4--------7---4------4-------7----2-*|----4-----5v-----
-0-|---------|--0---|---2--------5---2------2-------5----0--|-2-----2---------
    end# 1    end# 2    verse riff, twice                                     

------------------------------|-----------------------------------------------
------------------------------|-----------------------------------------------
----------------------4----2--|-------------2---------------------------------
----------------------4----2--|-----2---4------4---2--------------------------
-7\-------4-----5v----2----0--|--4--------------------4---2-------------------
-------2-----2----------------|-----------------------------------------------
                    to verse    Eddie Jackson's Bass Fill "Watch the dragon"  

------------------------------------------------------------------------------
------------------------------------------------------------------------------
-6--------6--------6---2------6--------6--------6---4----6--------6--------6--
-6--------6--------6---2------6--------6--------6---4----6--------6--------6--
-4--4--4--4--4--4--4---0------4--4--4--4--4--4--4---2----4--4--4--4--4--4--4--
------------------------------------------------------------------------------
 Bridge                                                                       

-----------------------------0--------0---------------------------------------
-------------------------------4--------4-------------------------------------
-2-------4-----------------------4--------4-----------------------------------
-2-------4--------------------------------------------------------------------
-0-------2--------------------------------------------------------------------
----------------------------------------------0-------------------------------
       so take this numba!!!  and welcome . . .  to chorus (reuse intro)      

------------------------------------------------------------------------------
-5^------------------------------------------5b7v----2--5--2-----2------------
----\--------0---\---------/\---------/-----------------------4-----4--2--4---
------\------------\-----/----\-----/-----------------------------------------
--------\------------\-/--------\-/-------------------------------------------
----------\-------------------------------------------------------------------
 Killer Guitar Solo  \ = bar dives, by the way                                

------------------------------------------------------------------------------
------------------------------------------------------------------------------
-2-----2---------------------------------------------------2------------------
----4----4--2--2-----2-------------------------------2--4-----4v-----2---4-4--
------------4-----4-----4--3--2----------------2--4---------------------------
------------*---------------------5---2b42v-----------------------------------
      A mistake? the two notes, "double stop" on the recording     PM-------- 

-------------------------------------12-b14------------------14--17b19--------
-----------------------------12--14----------14-13-14v---17-------------------
----------------------4v------------------------------------------------------
-2-4-4-2-4-4-2-4-4--2---------------------------------------------------------
------------------------------------------------------------------------------
------------------------------------------------------------------------------
 -----------------                                                            
[ Tab from: http://www.guitartabs.cc/tabs/q/queensryche/operation_mindcrime_tab_ver_2.html ]
-14--17--14------14-----------------------------------------------------------
-------------17------17--14-17------14------14--17--14-----14-----------------
--------------------------------16------16-------------16-----16--14----------
----------------------------------------------------------------------16------
------------------------------------------------------------------------------
------------------------------------------------------------------------------
                                                                              

-16--18---14v----16-----------------------------------------------------------
---------------------16v---------14--12-----12--14--12--14--12-----12--14-12--
-----------------------------------------13---------------------13------------
------------------------------------------------------------------------------
------------------------------------------------------------------------------
------------------------------------------------------------------------------
 Ab key change                                                                

---------------------------------------------14v------------------------------
-14--12------12--14--12--14-12-----12--14/---16v----------/12--11---------12--
---------13---------------------13---------------------------------11---------
------------------------------------------------------------------------------
------------------------------------------------------------------------------
------------------------------------------------------------------------------
                                                                              

------------------------------------------------------------------------------
-11-------12--11-------14----12-11------12--12--11----------------------------
-----11-----------11----------------11--------------11---13--11--13b15r13-----
------------------------------------------------------------------------------
------------------------------------------------------------------------------
------------------------------------------------------------------------------
                                                                              

------------------------------------------------------------------------------
------------------------------------------------------------------------------
-11---13v---11----------------------------------------------------------------
------------------13--14--16--14--13------13--14--16--14--13-----13--14--16---
--------------------------------------16---------------------16---------------
------------------------------------------------------------------------------
                                                                              

------------------------------------------------------------------------------
------------------------------------------------------------------------------
------------------------------------------------------------------------------
-14--13------13--14--16--14--13------13--14--16--14--13------14--13--11-13----
---------16----------------------16----------------------16-------------------
------------------------------------------------------------------------------
                                                                              

------------------------------------------------------------------------------
------------------------------------------------------------------------------
-----------------------------6b7-----^6r-p4--6b7---4h6--4--6---4v-------------
-11--9--11--11-11-11-9\--6----------------------------------------------------
------------------------------------------------------------------------------
------------------------------------------------------------------------------
                               don't pick string after artificial harmonic    

-0---------0------------------------------------------------------------------
---4---------4----------------------------------------------------------------
-----4-----------------------------------4----2-------------------------------
-----------------------------------------4----2-------------------------------
-------------------------4-------5v------2----0-------------------------------
---------------0-----2-------2------------------------------------------------
                                                   verse riff, chorus, then   

------------------------------------------------------------------------------
-------------------------------------------------------------------\----------
------------------------------------------------------------------------------
---------------------------------------------------------------------\--------
--5--------------------------------------------------------------2------------
-----------------------------------------------------------------------\------
  the end jam . . . the note here is a D feeding back . . . then              

------------------------------------------------------------------------------
------------------------------------------------------------------------------
----------------------------------------4-------------------------------------
-----\--\-\-\--/-/-/-/-\-\--------------4-------------------------------------
----------------------------------------2-------------------------------------
------------------------------------------------------------------------------
 show off that Whammy Bar ya' got!!         feedback to "Speak"               

h  - hammer on
p  - pull off
* - trill
b  - bend (use tremolo bar for downbend)
r  - release bend
/  - slide up
\  - slide down
v  - vibrato
t  - tap (with strumming hand)
x  - fret-hand muting
^ -  natural harmonics
ph- artificial (pinch) harmonics
PM palm mute
					-\----------/----
Lines going diagonally up and down   --\--------/-----
These mean whammy bar                     --\------/-------
 		 -                                    --\----/------
\ - bar down
/- bar up

Comments