Queens Of The Stone Age - Walking On The Sidewalks Chords & Tabs

 

Walking On The Sidewalks Chords & Tabs

Queens Of The Stone Age Chords & Tabs

Version: 1 Type: Bass Tab 0 ratings
1 star 2 stars 3 stars 4 stars 5 stars
comments

Walking On The Sidewalks Bass Tab

Band- Queens Of The Stone Age
Song- Walking On The Sidewalks

Tuning: Down 2 Whole Steps to C (C-F-Bb-Eb)

Intro:  (3x)     (1x)
Eb|--------|--------|
Bb|--------|--------| 
 F|---/5---|---5\---|
 C|--------|--------|


Riff 1:
Eb|-------------------||
Bb|-------------------||
 F|-----7---10--7-5---||
 C|---0---0-----------||


Fill 1:
Eb|---------------||
Bb|---------------||
 F|---12br-12br---||
 C|---------------||


Fill 2:
Eb|----------||
Bb|----------||
 F|---5--5---||
 C|----------||


Fill 3:
Eb|----------------||
Bb|----------------||
 F|---7--7p5h7-7---||
 C|----------------||


Riff 2:
Eb|------------------||
Bb|------------------||
 F|---4---5--7-5-----||
 C|-----0--------0---||

[ Tab from: http://www.guitartabs.cc/tabs/q/queens_of_the_stone_age/walking_on_the_sidewalks_btab.html ]
Chorus Riff:
Eb|---------------------------------||
Bb|----------7--7-7--------6--6-6---||
 F|---------------------------------||
 C|---5--5-5--------4--4-4----------||


Fill 4:
Eb|----------------||
Bb|----------------||
 F|---10p7-10h12---||
 C|----------------||


Riff 3a:
Eb|--------------------------------------------------------------------||
Bb|----------7--7-7-7--------6--6-6-6--------5--5-5-5-------4--4-4-4---||
 F|--------------------------------------------------------------------||
 C|---5--5-5----------4--4-4----------3--3-3----------2--2-2-----------||


Riff 3b:
Eb|---------------------------||
Bb|---3--3-3---3--3-3---3-----||
 F|---------------------------||
 C|----------1--------1---1---||


Riff 4:
Eb|-----------------------||
Bb|-----------------------||
 F|-------7-----------5---||
 C|---0-0---0-0-0-5h7-----||


Riff 5:
Eb|-------------------------||
Bb|-------------------------||
 F|--------5---7--------5---||
 C|----0-0---0----0-5h7-----||


Ending:
Eb|---------||
Bb|---------||
 F|---------||
 C|---0-0---||
Comments