Queens Of The Stone Age - These Arent The Droids Your Looking For Chords & Tabs

 

These Arent The Droids Your Looking For Chords & Tabs

Queens Of The Stone Age Chords & Tabs

Version: 1 Type: Tab 0 ratings
1 star 2 stars 3 stars 4 stars 5 stars
comments

These Arent The Droids Your Looking For Tab

again i didn't tab this, i'm just trying to get all of qotsa's songs on here for everybody to enjoy

QOTSA - These Aren't the Droids You're Looking For
tabbed by Chris Spagna

(Intro Riffs)
C |--------|-------|----------|------------|------|
G |--------|10~--8~|12-8------|------------|------|
Eb|8h9-9---|---9~--|-----9--9~|---------7--|------|
Bb|------7~|-------|----------|----9---9-9~|------|
F |--------|-------|----------|7-10--7-----|------|
C |--------|-------|----------|------------|-////-|

C |-10-----------------------------------12~~--11^(12)~~\-|
G |---8-10-----8-7--8~~--7~~------------------------------|
Eb|----9----7-9---------------9~~-------------------------|
Bb|-------------------------------8~9~~\------------------|
F |-------------------------------------------------------|
C |-------------------------------------------------------|

C |-----------------|-----------------|-----------------|-----------------|
G |---------3-------|---------3-------|-----------------|---------0-------|
Eb|-------4---4-----|-------4---4-----|-------4---2-----|-------2---------|
Bb|-----3-------3---|-----3-------3---|-----3---2---3---|-----3-----3-----|
F |---2-----------2-|---2-----------2-|---2-----------2-|---2---------2---|
C |-0---------------|-0---------------|-0---------------|-0-------------0-|

C |-----------------|-----------------|-----------------|-----------------|
G |-----------------|-----------------|-----------------|-----------------|
Eb|-----------------|-----------------|-----------------|-----------------|
Bb|-----3-3---3-----|-----3-x-x-3-----|-----3-x-x-3-----|-----3-x-x-3-----|
F |---2---------2---|---2---------2---|---2---------2---|---2---------2---|
C |-0-------------0-|-0-------------0-|-0-------------0-|-0-------------0-|

C |-----------------|-----------------|-----------------|-------------4---|
G |---------3-------|---------3-------|-----------3-----|-------3-------3-|
Eb|-------4---4-----|-------4---4-----|-------4---------|---------4-2-----|
Bb|-----3-------3---|-----3---------3-|-----3---0---3---|-----3-----------|
F |---2-----------2-|---2-------------|---2-----------2-|---2-------------|
C |-0---------------|-0---------------|-0---------------|-0---------------|

C |-----4/6-6--444---666--7--6--7--4--|-----------------|-------4-------4-|
G |-----3/5-5--333---555--6--5--6--3--|---------3-------|-----------3-----|
Eb|-----------------------------------|-------4---4---2-|---------4---2---|
Bb|-----------------------------------|-----3-------3---|-----3-----------|
F |---2-------------------------------|---2-------------|---2-------------|
C |-0---------------------------------|-0---------------|-0---------------|

C |--444-6-7-6-4-1010\9-9\7-6/7\6-6\44|-----------4-----|-----------4-----|
G |--333-5-6-5-3-9-9\\8-8\6-5/6\5-5\33|---------3---3---|---------3---3---|
Eb|-----------------------------------|-----3h4---------|-----3h4---------|
Bb|-----------------------------------|---------------3-|---------------3-|
F |-----------------------------------|---2-------------|---2-------------|
C |-0---------------------------------|-0---------------|-0---------------|

C |--4-4-4-6----333/10-9-666-12-12-12-|-----------------|-----------------|
G |--3-3-3-5-5--222/9--8-555-11-11-11-|---------3h5-----|---------0---3h5-|
Eb|----------3------------------------|-------4-----3h4-|-------3---3-----|
Bb|-----------------------------------|-----3-----------|-----3-----------|
F |-----------------------------------|---2-------------|---2-------------|
C |-0---------------------------------|-0---------------|-0---------------|
[ Tab from: http://www.guitartabs.cc/tabs/q/queens_of_the_stone_age/these_arent_the_droids_your_looking_for_tab.html ]
C |--444-6-7-6-4-10-9-12-10-9-10\9-9-6|-----------4-----|-----------4-----|
F |--333-5-6-5-3-9--8-11-9--8-9\\8-8-5|---------3---3---|---------3---3---|
Eb|-----------------------------------|-------4---------|-----3h4---------|
Bb|-----------------------------------|-----3---------3-|---------------3-|
F |-----------------------------------|---2-------------|---2-------------|
C |-0---------------------------------|-0---------------|-0---------------|

C |---10-----7------|---10-----7------|---10-----7------|---10-----7------|
F |------9-----6-7~-|------9-----6-7~-|------9-----6-7~-|------9-----6-7~-|
Eb|--------9--------|--------9--------|--------9--------|--------9--------|
Bb|-----------------|-----------------|-----------------|-----------------|
F |-----------------|-----------------|-----------------|-----------------|
C |-----------------|-----------------|-----------------|-----------------|

C |---10-----7------|---10-----7------|---10-----7------|---10-----7------|
F |------9-----6-7~-|------9-----6-7~-|------9-----6-7~-|------9-----6-7~-|
Eb|--------9--------|--------9--------|--------9--------|--------9--------|
Bb|-----------------|-----------------|-----------------|-----------------|
F |-----------------|-----------------|-----------------|-----------------|
C |-----------------|-----------------|-----------------|-----------------|

C |-----------------|-----------------|-----------------|-----------------|
F |-----------------|-----------------|-----------------|-----------------|
Eb|-----------------|-----------4-----|-----------------|-------444-------|
Bb|-----3-x-x-3-----|-----3-x-x---3---|-----3-x-x-3-----|-----3-----2-3~--|
F |---2---------2---|---2-------------|---2---------2---|---2-------------|
C |-0------------0--|-0-------------0-|-0------------0--|-0---------------|

C |-----------4-----|-4/6-------------|-------4/6-------|---------4/6-----|
F |-------------3---|-----5p3---------|-----------5p3---|-----3-------5p3-|
Eb|-------4-------4-|---------4-2-----|-----------------|---4-------------|
Bb|-----3---3-------|-------------x-3-|-----3-----------|-3---------------|
F |---2-------------|-----------------|---2-----------2-|-------2---------|
C |-0---------------|-----------------|-0---------------|-----------------|

C |-----------------|-----------------|-----------------|-----------------|
F |-----------------|-----------------|-----------------|-----------------|
Eb|-----------------|-----------------|-----------------|-----------------|
Bb|-----3-x-x-3-----|-----3-x/x-3-----|-----3-x/x-3-----|-----3-x/x-3-----|
F |---2---------2---|---2---------2---|---2---------2---|---2---------2---|
C |-0-------------0-|-0-------------0-|-0-------------0-|-0------------0--|

C |-----------------|-----------------|-----------------|-----------------|
F |-----------------|-----------------|-----------------|-----------------|
Eb|-----------------|-----------------|-----------------|-----------------|
Bb|-----3-----3-----|-----3-----3-----|-----3-----------|-----3-----------|
F |---2---------2---|---2---------2---|---2-------------|---2-------------|
C |-0-------------0-|-0-------------0-|-0---------------|-0---------------|

C |-----------------|-----------------|-----------------|
F |-----------------|-----------------|-----------------|
Eb|-----------------|-4-----4---------|-4---------------|
Bb|-----3-----------|---3-------------|---3-------------|
F |---2-------------|-----2-----------|-----2-----------|
C |-0---------------|-----------------|-------0---------|

(Outro Riffs)
C |----|21^~-20^~|21^~-20^~|-------|15^~|--------|15^----------16^-|
F |12~~|---------|21^~-----|-------|----|-------/|--15--15\12----15|
Eb|----|---------|---------|-------|----|-------/|-----------------|
Bb|----|---------|---------|-------|----|--------|-----------------|
F |----|---------|---------|-----/8|----|14\\\---|-----------------|
C |----|---------|---------|\\\\---|----|12\\\\--|-----------------|

(Closing)
C |----12-----11----10-----9--|
F |-11-----10-----9-----8-----|
Eb|---------------------------|
Bb|---------------------------|
F |---------------------------|
C |---------------------------|
Comments