Queens Of The Stone Age - Skin On Skin Chords & Tabs

 

Skin On Skin Chords & Tabs

Queens Of The Stone Age Chords & Tabs

Version: 1 Type: Tab 0 ratings
1 star 2 stars 3 stars 4 stars 5 stars
comments

Skin On Skin Tab

Band- Queens Of The Stone Age
Song- Skin On Skin

<5> = natural harmonic

 ^
 5  = wah

 Intro/Verses 0:00
E:----------------------------------------|
G:----------------------------------------|
B:----------------------------------------|
D:--6~~-----------------------------------|
A:--6~~-----------------------------------|
E:--4~~-3-4-5-4-<5>-<5>--3-4-5-4-<4>-<4>--|
  There are a few fills and differences which are just some random bends and stuff
  with the wah pedal

 Chorus/Bridge/I Dono 1:07
E:---------------------------------------|
G:---------------------------------------|
B:---------------------------------------|
D:---------------------------------------|
A:----------^-^----------^-^-------------|
E:--3-4-5-5-5-5--3-4-5-4-4-4-------------|

[ Tab from: http://www.guitartabs.cc/tabs/q/queens_of_the_stone_age/skin_on_skin_tab.html ]
 Solo 1:38
E:-----------^^^^------^^------------------------------------|
B:--7-8-9-7-999999-7-10b(12)-8~-7h8------------------------7-|
G:----------------------------------8~-8--8-9--8--9--8--9-8--|
D:--------------------------------------10------10----10-----|
A:-----------------------------------------------------------|
E:-----------------------------------------------------------|
        ^ ^^      ^        ^^
E:------x-11b(12)-x-------11b(12)-11-11-9------------------------|
B:----6-x---------x9h11p9-----------------11~-11b(12)-etc.-------|
G:-6h8-------------------------------------------------mad-------|
D:------------------------------------------------------wah------|
A:-------------------------------------------------------for-a---|
E:--------------------------------------------------------while--|
  This a rough go at the solo. Its just mad wah and bends around this general shape.
  Its hard to tab it perfectly because it seems like it was just a very spur of the
  moment thing in the studio.
Comments