Queens Of The Stone Age - Regular John Chords & Tabs

 

Regular John Chords & Tabs

Queens Of The Stone Age Chords & Tabs

Version: 5 Type: Tab 0 ratings
1 star 2 stars 3 stars 4 stars 5 stars
comments

Regular John Tab

   
Artist-QOTSA
Track-Regular John
Album-Queens Of The Stone Age
Any comments, questions or queries then mail me at ruled_by_secrecy_6@hotmail.com

Opening Lead: (w/tremelo)
 C|---------------14---||
 G|---15------14-------||
Eb|-------12-----------||
Bb|--------------------||
 F|--------------------||
 C|--------------------||


Opening:
 C|-----------------||
 G|-----------------||
Eb|-----------------||
Bb|-9-9-9-9-9-9-9-9-||
 F|-7-7-7-7-7-7-7-7-|| (x10 before drums kick in, then x8 after)
 C|-0-0-0-0-0-0-0-0-||

 C|---------------------------------------------------||
 G|---------------------------------------------------||
Eb|-9--9--9--9--12-12-12-----11-11-11-11-11-11-11-----||
Bb|-9--9--9--9---9--9--9--9---9--9--9--9--9--9--9--9--||
 F|-7--7--7--7---7--7--7--7---7--7--7--7--7--7--7--7--|| (x4)
 C|-0--0--0--0---0--0--0--0---0--0--0--0--0--0--0--0--||


Then opening riff x8 before kicking into this:
 C|-------------------------------------------------||
 G|-------------------------------------------------||
Eb|-------------------------------------------------||
Bb|-9-------------10-10-----------------------------||
 F|-7--7--7--9--9--8--8-10-10--12-12-12-12-12-12-12-||
 C|-0--5--5--7--7--------8--8--10-10-10-10-10-10-10-||

[ Tab from: http://www.guitartabs.cc/tabs/q/queens_of_the_stone_age/regular_john_tab_ver_5.html ]
Chorus:
 C|-----------------------------------------|-------||
 G|-----------------------------------------|-------||
Eb|-----------------------------------------|-------||
Bb|-12-12-12-12-12-12-12-12-12----------9---|-12--9-||
 F|-10-10-10-10-10-10-10-10-10----12----7---|-10--7-||
 C|-------------------------------10----0---|-----0-||


Chorus 1 Lead:
 C|------------------------------------------------------------------------||
 G|------------------------------------------------------------------------||
Eb|------------------------------------------------------------------------||
Bb|------------------12-14-12-14p12----12-14-12-14-14b---14p12-------------||
 F|---------10-12-14----------------14------------------------14--10--12---||
 C|---10-12----------------------------------------------------------------||


Chorus 2 Lead:
 C|-------------------------------------------||
 G|---17b--17--------17b---17-----------------||
Eb|-----------16--------------16--------------||
Bb|--------------14--------------14--17--14---||
 F|-------------------------------------------||
 C|-------------------------------------------||


Chorus 3 Lead:
 C|-----------------------------------------------------------------|
 G|-----------------------------------------------------------------|
Eb|------------------------------------------12----12-14b---14-12---|
Bb|------------------12-14-12-14p12----12-14----14------------------|
 F|---------10-12-14----------------14------------------------------|
 C|---10-12---------------------------------------------------------|

 C|------------------------------------------------||
 G|---17b--17p15--------17b--17p15-----------------||
Eb|--------------16----------------16--------------||
Bb|-----------------14----------------14--17--14---||
 F|------------------------------------------------||
 C|------------------------------------------------||
Comments