Queens Of The Stone Age - No One Knows Chords & Tabs

 

No One Knows Chords & Tabs

Queens Of The Stone Age Chords & Tabs

Version: 4 Type: Tab 3 ratings
1 star 2 stars 3 stars 4 stars 5 stars
comments

No One Knows Tab

   
                           Queens Of The Stone Age
                                 No One Knows

transcribed by Travis Lausch 

tune down 2 steps (C F Bb Eb G C)

Moderately, in 4/4 with a Triplet feel
(         +-3-+ )
( e + e = q + e )

Intro
|--12----12----12----12----------|
|--12----12----12----12----------|
|--12----12----12----12----------|
|--14----14----14----14----------|
|--14----14----14----14----------|
|--12----12----12----12----15\---|

Main Riff
|---------------------|------------------------|
|-----10----10--8-----|--10----10--8-----------|
|-----x-----x---x--9--|--x-----x---x-----------|
|-----9-----9---9--9--|--9-----9---9---9-------|
|-----7-----7---7--7--|--7-----7---7---7-------|
|--0------------------|-------------------15\--|

|---------------------|------------------------|
|-----10----10--8-----|--10----10--8-----------|
|-----x-----x---x--9--|--x-----x---x-----------|
|-----9-----9---9--9--|--9-----9---9---9-------|
|-----7-----7---7--7--|--7-----7---7---7-------|
|--0------------------|-------------------15\--|

|---------------------|-------------------------|
|-----10----10--8-----|--10----10b12r10---------|
|-----x-----x---x--9--|--x-----x----------------|
|-----9-----9---9--9--|--9----------------------|
|-----7-----7---7--7--|--7----------------------|
|--0------------------|--------------------15\--|

                                           *
|---------------------|---------------------|
|-----10----10--8-----|--10----10--8--------|
|-----x-----x---x--9--|--x-----x---x--------|
|-----9-----9---9--9--|--9-----9---9---9-------|
|-----7-----7---7--7--|--7-----7---7---7-------|
|--0------------------|------------------------|

Verse 1                          x4
||-------------------------------||
||-----8-----8-----8-----8-10-8--||
||o----x-----x-----x-----x-x--x-o||
||o----9-----9-----9-----9-9--9-o||
||-----7-----7-----7-----7-7--7--||
||--0-----0-----0-----0----------||

|----------------------------|----------------------------------|
|----------------------------|----------------------------------|
|--8--8--8--8--8--8--8--8----|--12--12--12--12--12--12--12--12--|
|--7--7--7--7--7--7--7--7h9--|--11--11--11--11--11--11--11--11--|
|--9--9--9--9--9--9--9--7h9--|--13--13--13--13--13--13--13--13--|
|--7--7--7--7--7--7--7--7----|--11--11--11--11--11--11--11--11--|

|---------------------|------------------------|
|-----10----10--8-----|--10----10--8-----------|
|-----x-----x---x--9--|--x-----x---x-----------|
|-----9-----9---9--9--|--9-----9---9---9-------|
|-----7-----7---7--7--|--7-----7---7---7-------|
|--0------------------|-------------------15\--|

|---------------------|--------0-------|
|-----10----10--8-----|--8-----4b5~~~--|
|-----x-----x---x--9--|----------------|
|-----9-----9---9--9--|--9-------------|
|-----7-----7---7--7--|--7-------------|
|--0------------------|----------------|

Verse 2                          x4
||-------------------------------||
||-----8-----8-----8-----8-10-8--||
||o----x-----x-----x-----x-x--x-o||
||o----9-----9-----9-----9-9--9-o||
||-----7-----7-----7-----7-7--7--||
||--0-----0-----0-----0----------||

|----------------------------|----------------------------------|
|----------------------------|----------------------------------|
|--8--8--8--8--8--8--8--8----|--12--12--12--12--12--12--12--12--|
|--7--7--7--7--7--7--7--7h9--|--11--11--11--11--11--11--11--11--|
|--9--9--9--9--9--9--9--7h9--|--13--13--13--13--13--13--13--13--|
|--7--7--7--7--7--7--7--7----|--11--11--11--11--11--11--11--11--|

|---------------------|-------------------------------|
|-----10----10--8-----|--10----10--8------------------|
|-----x-----x---x--9--|--x-----x---x------------------|
|-----9-----9---9--9--|--9-----9---9------------------|
|-----7-----7---7--7--|--7-----7---7---------5h7h5----|
|--0------------------|----------------0h5h7-------7--|

|---------------------|------------------------|
|-----10----10--8-----|--10----10--8-----------|
|-----x-----x---x--9--|--x-----x---x-----------|
|-----9-----9---9--9--|--9-----9---9---9-------|
|-----7-----7---7--7--|--7-----7---7---7-------|
|--0------------------|-------------------15\--|

|----------------------------|----------------------------------|
|----------------------------|----------------------------------|
|--8--8--8--8--8--8--8--8----|--12--12--12--12--12--12--12--12--|
|--7--7--7--7--7--7--7--7h9--|--11--11--11--11--11--11--11--11--|
|--9--9--9--9--9--9--9--7h9--|--13--13--13--13--13--13--13--13--|
|--7--7--7--7--7--7--7--7----|--11--11--11--11--11--11--11--11--|

|---------------------|---------------------12--------|
|-----10----10--8-----|--10----10--8--10b12-----------|
|-----x-----x---x--9--|--x-----x---x-----------9~~~---|
|-----9-----9---9--9--|--9-----9---9------------------|
|-----7-----7---7--7--|--7-----7---7------------------|
|--0------------------|-------------------------------|

|---------------------|------------------------|
|-----10----10--8-----|--10----10--8-----------|
|-----x-----x---x--9--|--x-----x---x-----------|
|-----9-----9---9--9--|--9-----9---9---9-------|
|-----7-----7---7--7--|--7-----7---7---7-------|
|--0------------------|------------------------|

Chorus
||---------------|------------------|-----------------|------------------||
||---------------|------------------|-----------------|------------------||
||o-9--11-12--11-|--14--12--16--14--|-----------------|-----------------o||
||o-x--x--x---x--|--x---x---x---x---|-9-7-9-7-9-7-9-7-|-9-7-9-7-9-7-9-7-o||
||--7--9--10--9--|--12--10--14--12--|-9-7-9-7-9-7-9-7-|-9-7-9-7-9-7-9-7--||
||---------------|------------------|-7-7-7-7-7-7-7-7-|-7-7-7-7-7-7-7-7--||
[ Tab from: http://www.guitartabs.cc/tabs/q/queens_of_the_stone_age/no_one_knows_tab_ver_4.html ]
|---------------|------------------|-----------------|------------------|
|---------------|------------------|-----------------|------------------|
|--12-11-9---7--|--9---11--12--11--|-----------------|------------------|
|--x--x--x---x--|--x---x---x---x---|-9-7-9-7-9-7-9-7-|-9-7-9-7-9-7-9-7--|
|--10-9--7---5--|--7---9---10--9---|-9-7-9-7-9-7-9-7-|-9-7-9-7-9-7-9-7--|
|---------------|------------------|-7-7-7-7-7-7-7-7-|-7-7-7-7-7-7-7-7--|

|---------------|------------------|-----------------|------------------|
|---------------|------------------|-----------------|------------------|
|--9--11-12--11-|--14--12--16--14--|-----------------|------------------|
|--x--x--x---x--|--x---x---x---x---|-9-7-9-7-9-7-9-7-|-9-7-9-7-9-7-9-7--|
|--7--9--10--9--|--12--10--14--12--|-9-7-9-7-9-7-9-7-|-9-7-9-7-9-7-9-7--|
|---------------|------------------|-7-7-7-7-7-7-7-7-|-7-7-7-7-7-7-7-7--|

Verses 3 and 4: play the same as verses 1 and 2

Chorus: same as 1st one

Bridge
|-------------------|-------------------|---------------------|
|-------------------|-------------------|---------------------|
|--9-9-9-9-9-9-9-9--|--9-9-9-9-9-9-9-9--|---------8-----------|
|--9-9-9-9-9-9-9-9--|--9-9-9-9-9-9-9-9--|--9--10--8--9--7--9--|
|--7-7-7-7-7-7-7-7--|--7-7-7-7-7-7-7-7--|--9--10--6--9--7--9--|
|--0-0-0-0-0-0-0-0--|--0-0-0-0-0-0-0-0--|--7--8------7--5--7--|

                                                               x4
|-------------------|-------------------||---------------------||
|-------------------|-------------------||---------------------||
|--9-9-9-9-9-9-9-9--|--9-9-9-9-9-9-9-9--||o--------8----------o||
|--9-9-9-9-9-9-9-9--|--9-9-9-9-9-9-9-9--||o-9--10--8--9--7--9-o||
|--7-7-7-7-7-7-7-7--|--7-7-7-7-7-7-7-7--||--9--10--6--9--7--9--||
|--0-0-0-0-0-0-0-0--|--0-0-0-0-0-0-0-0--||--7--8------7--5--7--||

Bass Solo
|---------------------------|------------------------------|
|---------------------------|------------------------------|
|--9------------------------|------------------------------|
|--9------------------------|------------------------------|
|--7------------------------|------------------------------|
|---------------------------|------------------------------|
|
|---------------------------|------------------------------|
|--14-14-14-14-14-14-14-14--|--12h14-14-14-14-14-14-14-14--|
|---------------------------|------------------------------|
|---------------------------|------------------------------|


|-----------------12h14-14-14-14--|---------------------------------|
|--12h14-14-14-14-----------------|--12h14-14-14-14-----------------|
|---------------------------------|-----------------12h14-14-14-14--|
|---------------------------------|---------------------------------|

Guitar Solo
|--0---0-0---0-0---0-0----0-------|--0-----0--0-----0-----0--0--0--0--0---|
|--3/5-5-5/7-7-7/8-8-8/10-10/12~~-|--15\12-12-19\15-15\12-12-12-15\12-12--|
|---------------------------------|---------------------------------------|
|---------------------------------|---------------------------------------|
|---------------------------------|---------------------------------------|
|---------------------------------|---------------------------------------|

|--0---------|----------------------------------------------|
|--10/12~~~--|--10h12p10p8/10~~--8h10p8p7/8~~--7h8p7p5/7~~--|
|------------|----------------------------------------------|
|------------|----------------------------------------------|
|------------|----------------------------------------------|
|------------|----------------------------------------------|

|--------------------|---------------------------------------------|
|--7h8p7p5/7~~/12~~--|-----8/12b15~~~-----8/12b15~~-----8/12b15~~--|
|--------------------|--9--------------9-------------9-------------|
|--------------------|---------------------------------------------|
|--------------------|---------------------------------------------|
|--------------------|---------------------------------------------|

                         Bass Solo 2/Bridge
                       x4  1st time only
||--14\12--------------||-------------------|------------------||
||--------12/15--------||--15/17------------|------------------||
||o-------------------o||o------------------|-----------------o||
||o-------------16\14-o||o------------------|-----------------o||
||---------------------||-------------------|------------------||
||---------------------||-------------------|------------------||
|
||---------------------||-------------------|------------------||
||o-------------------o||o------------------|-----------------o||
||o-------------------o||o---7---7---7---7--|----7---7---7---7o||
||---------------------||--0---0---0---0----|--0---0---0---0---||

Lead-in to 5th verse:
|----|
|----|
|----|
|-------|
|-------|
|-------|

5th Verse: same as 1st and 2nd verses

Outro
|--12----12----12----12----12----|
|--12----12----12----12----12----|
|--12----12----12----12----12----|
|--14----14----14----14----14----|
|--14----14----14----14----14----|
|--12----12----12----12----12----|

* = pick strings behind nut to produce harmonic

I know this is right, I watched the video over and over until I nailed it.
This is one of the best songs I've ever heard by a modern rock group, and
hope a lot more people listen to it and love it like me.

I took a lot of this transcription from Bruno Calatroni's tab, modified
it to include the solo, and I watched the video for finger positionings
(yes, I know they're only faking it, but they must be playing it pretty
close to the original). The guitar solo was the only part I had to figure
out on my own because none of the other transcriptions had the solo in it.

On the bends in the solo, strike the note, hold its pitch for 1/4 note, then
bend up 1 1/2 steps, and vibrate. The solo is very complex, so take your
time to learn it.
Comments