Queens Of The Stone Age - No One Knows Chords & Tabs

 

No One Knows Chords & Tabs

Queens Of The Stone Age Chords & Tabs

Version: 16 Type: Tab

No One Knows Tab

   
Tuning: C F Bb Eb G C
sounds good with a rhythm distortion.
bass 6, mids 5, treble 7

Intro:
|----------------|
|-8---8---8---8--|
|-x---x---x---x--|
|-9---9---9---9--|
|-7---7---7---7--|
|----------------|


|-------------------------------------------------------|
|-----------10--10----8---------10--10----8-------------|
|-----------x----x----x----9----x----x----x----9--------|
|-----------9----9----9----9----9----9----9----9--------|    x2
|-----------7----7----7----7----7----7----7----7--------|
|-15/--0-------------------0-------------------0--------|

on the third time, play this:
|--------------------------------------------------|
|-----------10--10----8---------10---10^11r10------|
|-----------x----x----x----9----x----x-------------|
|-----------9----9----9----9----9----9~------------|
|-----------7----7----7----7----7----7~------------|
|-15/---0------------------0-----------------------|

then play this the fourth time:
(* = natural harmonics)
|----------------------------------------------|
|-----------10--10----8---------------7*-------|
|-----------x----x----x----9----------7*-------|
|-----------9----9----9----9----------7*-------|
|-----------7----7----7----7-------------------|
|-15/---0------------------0----0--------------|

Verse 1:

|------------------------------------------------|
|------8---------8--------8-------8--10--8--8----|
|------x---------x--------x-------x---x--x--x----|   x3
|-9----9----9----9---9----9---9---9---9--9--9----|
|-7----7----7----7---7----7---7---7---7--7--7----|
|-0---------0--------0--------0------------------|

on the fourth time, play this:

|-------------------------------------------------|
|------8--------8--------8-----8-------8----------|
|------x--------x--------x-----x---x---x---x------|
|-9----9----9---9---9----9-----9---9---9---9------|
|-7----7----7---7---7----7-----7---7---7---7------|
|-0---------0-------0-----------------------------|

then go on to this:
|------------------------------------------|
|------------------------------------------|
|------8---------8---------8----8------8---|
|------x---------x---------x----x------x---|
|-9----9----9----9----9----9----9--7--9--7-|
|-7----7----7----7----7----7----7--7--7--7-|


|------------------------------------------|
|-8----8----8----8----8----8----8--8--8--8-|
|-8----8----8----8----8----8----8--8--8--8-|
|-8----8----8----8----8----8----8--8--8--8-|
|-6----6----6----6----6----6----6--6--6--6-|
|------------------------------------------|


|------------------------------------------|
|-----10--10----8---------10--10----8------|
|-----x----x----x----9----x----x----x----9-|
|-----9----9----9----9----9----9----9----9-|
|-----7----7----7----7----7----7----7----7-|
|--0-----------------0-------------------0-|


|----------------------------------0~------|
|-----------10--10----8------------4^5-----|
|-----------x----x----x---9----------------|
|-----------9----9----9---9----------------|
|-----------7----7----7---7----------------|
|-15/----0----------------0----0-----------|

2nd part of verse 1:

|-------------------------------------------------|
|------8--------8--------8--------8--10--8--8-----|
|------x--------x--------x--------x---x--x--x-----|   x3
|-9----9----9---9---9----9---9----9---9--9--9-----|
|-7----7----7---7---7----7---7----7---7--7--7-----|
|-0---------0-------0--------0--------------------|


|-------------------------------------------------|
|------8--------8--------8-----8-------8----------|
|------x--------x--------x-----x---x---x---x------|
|-9----9----9---9---9----9-----9---9---9---9------|
|-7----7----7---7---7----7-----7---7---7---7------|
|-0---------0-------0-----------------------------|


|------------------------------------------|
|------10--------10--------10---10----10---|
|-8----8----8----8----8----8----8--8--8--8-|
|-x----x----x----x----x----x----x--x--x--x-|
|-9----9----9----9----9----9----9--9--9--9-|
|-7----7----7----7----7----7----7--7--7--7-|


|------------------------------------------|
|-8----8----8----8----8----8----8--8--8--8-|
|-8----8----8----8----8----8----8--8--8--8-|
|-8----8----8----8----8----8----8--8--8--8-|
|-6----6----6----6----6----6----6--6--6--6-|
|------------------------------------------|

Verse 1 tag:

|----------------------------------------------------|
|------10--10----8-------10--10--8-------------------|
|------x----x----x---9---x---x---x-------------------|
|------9----9----9---9---9---9---9-------------------|
|------7----7----7---7---7---7---7----------5h7------|
|---0----------------0-------------------5h7---5h7p0-|


|---------------------------------------------|
|----10--10----8---------10--10----8----------|
|----x----x----x----9----x----x----x----9---9-|
|----9----9----9----9----9----9----9----9---9-|
|----7----7----7----7----7----7----7----7---7-|
|-0-----------------0-------------------0---0-|


|------------------------------------------|
|------10--------10--------10---10----10---|
|-8----8----8----8----8----8----8--8--8--8-|
|-x----x----x----x----x----x----x--x--x--x-|
|-9----9----9----9----9----9----9--9--9--9-|
|-7----7----7----7----7----7----7--7--7--7-|


|------------------------------------------|
|-8----8----8----8----8----8----8--8--8--8-|
|-8----8----8----8----8----8----8--8--8--8-|
|-8----8----8----8----8----8----8--8--8--8-|
|-6----6----6----6----6----6----6--6--6--6-|
|------------------------------------------|


|-----------------------------------------------12-------|
|-----10--10----8-----------10--10---8----10^12~---------|
|------x----x---x---9-------x----x---x---------------9~--|
|------9----9---9---9-------9----9---9-------------------|
|------7----7---7---7-------7----7---7-------------------|
|--0----------------0------------------------------------|


|-------------------------------------------|
|------10--10----8---------10--10----8------|
|------x----x----x----9----x----x----x----9-|
|------9----9----9----9----9----9----9----9-|
|------7----7----7----7----7----7----7----7-|
|--0------------------0-------------------0-|


Chorus:

|--------------------------------------------------------------------|
|--------------------------------------------------------------------|
|-9--11---12--11---14--12--16--14------------------------------------|
|-x---x----x---x----x---x---x---x-9--7--9--7--9--7--9--7--9--7--9--7-|
|-7---9---10---9---12--10--14--12-9--7--9--7--9--7--9--7--9--7--9--7-|
|---------------------------------7--7--7--7--7--7--7--7--7--7--7--7-|


|--------------------------------------------------------------------|
|--------------------------------------------------------------------|
|-9--11---12--11---14--12--16--14------------------------------------|
|-x---x----x---x----x---x---x---x-9--7--9--7--9--7--9--7--9--7--9--7-|
|-7---9---10---9---12--10--14--12-9--7--9--7--9--7--9--7--9--7--9--7-|
|---------------------------------7--7--7--7--7--7--7--7--7--7--7--7-|


|--------------------------------------------------------------------|
|--------------------------------------------------------------------|
|-16--14--12--11--9--11--12--11--------------------------------------|
|--x---x---x---x--x---x---x---x--9--7--9--7--9--7--9--7--9--7--9--7--|
|-14--12--10---9--7---9--10---9--9--7--9--7--9--7--9--7--9--7--9--7--|
|--------------------------------7--7--7--7--7--7--7--7--7--7--7--7--|


|--------------------------------------------------------------------|
|--------------------------------------------------------------------|
|-9--11---12--11---14--12--16--14------------------------------------|
|-x---x----x---x----x---x---x---x-9--7--9--7--9--7--9--7--9--7--9--7-|
|-7---9---10---9---12--10--14--12-9--7--9--7--9--7--9--7--9--7--9--7-|
|---------------------------------7--7--7--7--7--7--7--7--7--7--7--7-|

Pre-verse/post-chorus

|------------------------------------------|
|-----10--10----8---------10--10----8------|
|-----x----x----x----9----x----x----x----9-|
|-----9----9----9----9----9----9----9----9-|
|-----7----7----7----7----7----7----7----7-|
|--0-----------------0-------------------0-|


|----------------------------------0~------|
|-----------10--10----8------------4^5-----|
|-----------x----x----x---9----------------|
|-----------9----9----9---9----------------|
|-----------7----7----7---7----------------|
|-15/---0-----------------0----0-----------|

Verse 2:


|------------------------------------------------|
|------8--------8--------8--------8--10--8--8----|
|------x--------x--------x--------x---x--x--x----|   x3
|-9----9----9---9---9----9---9----9---9--9--9----|
|-7----7----7---7---7----7---7----7---7--7--7----|
|-0---------0-------0--------0-------------------|


|-------------------------------------------------|
|------8--------8--------8-----8-------8----------|
|------x--------x--------x-----x---x---x---x------|
|-9----9----9---9---9----9-----9---9---9---9------|
|-7----7----7---7---7----7-----7---7---7---7------|
|-0---------0-------0-----------------------------|


|------------------------------------------|
|------10--------10--------10---10----10---|
|-8----8----8----8----8----8----8--8--8--8-|
|-x----x----x----x----x----x----x--x--x--x-|
|-9----9----9----9----9----9----9--9--9--9-|
|-7----7----7----7----7----7----7--7--7--7-|

|------------------------------------------|
|-8----8----8----8----8----8----8--8--8--8-|
|-8----8----8----8----8----8----8--8--8--8-|
|-8----8----8----8----8----8----8--8--8--8-|
|-6----6----6----6----6----6----6--6--6--6-|
|------------------------------------------|


|------------------------------------------------------|
|------10--10----8-------10--10--8---------------------|
|------x----x----x---9---x---x---x---------------------|
|------9----9----9---9---9---9---9---------------------|
|------7----7----7---7---7---7---7-----------5---------|
|---0----------------0-----------------5h6h7--7p5------|

[ Tab from: http://www.guitartabs.cc/tabs/q/queens_of_the_stone_age/no_one_knows_tab_ver_16.html ]
|-----------------------------------------|
|-------10--10----8---------------7*------|
|-------x----x----x----9----------7*------|
|-------9----9----9----9----------7*------|
|-------7----7----7----7----7-------------|
|----0-----------------0----0-------------|


|-------------------------------------------------|
|------8--------8--------8--------8--10--8--8-----|
|------x--------x--------x--------x---x--x--x-----|   x3
|-9----9----9---9---9----9---9----9---9--9--9-----|
|-7----7----7---7---7----7---7----7---7--7--7-----|
|-0---------0-------0--------0--------------------|


|-------------------------------------------------|
|------8--------8--------8-----8-------8----------|
|------x--------x--------x-----x---x---x---x------|
|-9----9----9---9---9----9-----9---9---9---9------|
|-7----7----7---7---7----7-----7---7---7---7------|
|-0---------0-------0-----------------------------|


|------------------------------------------|
|------10--------10--------10---10----10---|
|-8----8----8----8----8----8----8--8--8--8-|
|-x----x----x----x----x----x----x--x--x--x-|
|-9----9----9----9----9----9----9--9--9--9-|
|-7----7----7----7----7----7----7--7--7--7-|


|------------------------------------------|
|-8----8----8----8----8----8----8--8--8--8-|
|-8----8----8----8----8----8----8--8--8--8-|
|-8----8----8----8----8----8----8--8--8--8-|
|-6----6----6----6----6----6----6--6--6--6-|
|------------------------------------------|

|------------------------------------------|
|-----10--10----8---------10--10----8------|
|-----x----x----x----9----x----x----x----9-|
|-----9----9----9----9----9----9----9----9-|
|-----7----7----7----7----7----7----7----7-|
|--0-----------------0-------------------0-|


|---------------------------------------------------|
|------------10--10----8---------10--10----8--------|
|------------x----x----x----9----x----x----x----9---|
|------------9----9----9----9----9----9----9----9---|
|------------7----7----7----7----7----7----7----7---|
|-15/----0------------------0-------------------0---|


|------------------------------------------|
|------10--------10--------10---10----10---|
|-8----8----8----8----8----8----8--8--8--8-|
|-x----x----x----x----x----x----x--x--x--x-|
|-9----9----9----9----9----9----9--9--9--9-|
|-7----7----7----7----7----7----7--7--7--7-|


|------------------------------------------|
|-8----8----8----8----8----8----8--8--8--8-|
|-8----8----8----8----8----8----8--8--8--8-|
|-8----8----8----8----8----8----8--8--8--8-|
|-6----6----6----6----6----6----6--6--6--6-|
|------------------------------------------|


|-----------------------------------------------12-----|
|-----10--10----8-----------10--10---8----10^12~-------|
|------x----x---x---9-------x----x---x-------------9~--|
|------9----9---9---9-------9----9---9-----------------|
|------7----7---7---7-------7----7---7-----------------|
|--0----------------0----------------------------------|


|-------------------------------------------|
|------10--10----8---------10--10----8------|
|------x----x----x----9----x----x----x----9-|
|------9----9----9----9----9----9----9----9-|
|------7----7----7----7----7----7----7----7-|
|--0------------------0-------------------0-|


Chorus:

|--------------------------------------------------------------------|
|--------------------------------------------------------------------|
|-9--11---12--11---14--12--16--14------------------------------------|
|-x---x----x---x----x---x---x---x-9--7--9--7--9--7--9--7--9--7--9--7-|
|-7---9---10---9---12--10--14--12-9--7--9--7--9--7--9--7--9--7--9--7-|
|---------------------------------7--7--7--7--7--7--7--7--7--7--7--7-|


|--------------------------------------------------------------------|
|--------------------------------------------------------------------|
|-9--11---12--11---14--12--16--14------------------------------------|
|-x---x----x---x----x---x---x---x-9--7--9--7--9--7--9--7--9--7--9--7-|
|-7---9---10---9---12--10--14--12-9--7--9--7--9--7--9--7--9--7--9--7-|
|---------------------------------7--7--7--7--7--7--7--7--7--7--7--7-|


|--------------------------------------------------------------------|
|--------------------------------------------------------------------|
|-16--14--12--11--9--11--12--11--------------------------------------|
|--x---x---x---x--x---x---x---x--9--7--9--7--9--7--9--7--9--7--9--7--|
|-14--12--10---9--7---9--10---9--9--7--9--7--9--7--9--7--9--7--9--7--|
|--------------------------------7--7--7--7--7--7--7--7--7--7--7--7--|


|--------------------------------------------------------------------|
|--------------------------------------------------------------------|
|-9--11---12--11---14--12--16--14------------------------------------|
|-x---x----x---x----x---x---x---x-9--7--9--7--9--7--9--7--9--7--9--7-|
|-7---9---10---9---12--10--14--12-9--7--9--7--9--7--9--7--9--7--9--7-|
|---------------------------------7--7--7--7--7--7--7--7--7--7--7--7-|


Bridge:

|-----------------------------------------------------------|
|-----------------------------------------------------------|
|-----------------------------------------------------------|
|-14-x-14-x-14-x-14-x-14-x-14-x-14-x-14-x-14-x-14-x-14-x-14-|
|-14-x-14-x-14-x-14-x-14-x-14-x-14-x-14-x-14-x-14-x-14-x-14-|
|-12-x-12-x-12-x-12-x-12-x-12-x-12-x-12-x-12-x-12-x-12-x-12-|


|--------------------------|
|--------------------------|
|----------8---------------|
|-9---10---8---9---7---9---|
|-9---10---6---9---7---9---|
|-7----8-------7---5---7---|


|-----------------------------------------------------------|
|-----------------------------------------------------------|
|-----------------------------------------------------------|
|-14-x-14-x-14-x-14-x-14-x-14-x-14-x-14-x-14-x-14-x-14-x-14-|
|-14-x-14-x-14-x-14-x-14-x-14-x-14-x-14-x-14-x-14-x-14-x-14-|
|-12-x-12-x-12-x-12-x-12-x-12-x-12-x-12-x-12-x-12-x-12-x-12-|


|--------------------------|
|--------------------------|
|----------8---------------|
|-9---10---8---9---7---9---|  x4
|-9---10---6---9---7---9---|
|-7----8-------7---5---7---|

end bridge on this:
|-----|
|-----|
|--9--|
|--9--|
|--7--|
|-----|


Solo:

|-----0-----0------0-------0-|-0----0----0----0----0-----------|
|-5/7---7/8---8/10---10/12---|---17---15---19---15---17--8/12~-|
|----------------------------|---------------------------------|
|----------------------------|---------------------------------|
|----------------------------|---------------------------------|
|----------------------------|---------------------------------|

|-----------------------------------------------|
|-12p10p8h10--10p8p7h8--8p7p5h7--754--12~-------|
|-----------------------------------------------|
|-----------------------------------------------|
|-----------------------------------------------|
|-----------------------------------------------|

|--------------------------------------|
|-------12^15------12^15~--------12^15-|
|-9/12--------9/12---------9/12--------|
|--------------------------------------|
|--------------------------------------|
|--------------------------------------|


|-t14p10p7-------------t14p10p7-------------t14p10p7-----------|
|-----------t14p10p7-------------t14p10p7-------------t14p10p7-|
|--------------------------------------------------------------|
|--------------------------------------------------------------|
|--------------------------------------------------------------|
|--------------------------------------------------------------|


|-t14p10p7------------10^12--|
|----------t14p10p7----------|
|----------------------------|
|----------------------------|
|----------------------------|
|----------------------------|


Then there's a bass line. At the end of the bass line, there's a harmonic type sound. To 
this sound, pluck the top 3 strings above the nut of your guitar.

Verse 3:

|------------------------------------------------|
|------8--------8--------8--------8--10--8--8----|
|------x--------x--------x--------x---x--x--x----|
|-9----9----9---9---9----9---9----9---9--9--9----|
|-7----7----7---7---7----7---7----7---7--7--7----|
|-0---------0-------0--------0-------------------|


|------------------------------------------------|
|------8--------8--------8-----8-------8---------|
|------x--------x--------x-----x---x---x---x-----|
|-9----9----9---9---9----9-----9---9---9---9-----|
|-7----7----7---7---7----7-----7---7---7---7-----|
|-0---------0-------0----------------------------|


|------------------------------------------|
|------10--------10--------10---10----10---|
|-8----8----8----8----8----8----8--8--8--8-|
|-x----x----x----x----x----x----x--x--x--x-|
|-9----9----9----9----9----9----9--9--9--9-|
|-7----7----7----7----7----7----7--7--7--7-|


|------------------------------------------|
|-8----8----8----8----8----8----8--8--8--8-|
|-8----8----8----8----8----8----8--8--8--8-|
|-8----8----8----8----8----8----8--8--8--8-|
|-6----6----6----6----6----6----6--6--6--6-|
|------------------------------------------|


|-------------------------------------------------|
|-----10--10----8---------10--10----8---------<7>-|
|-----x----x----x----9----x----x----x----9----<7>-|
|-----9----9----9----9----9----9----9----9----<7>-|
|-----7----7----7----7----7----7----7----7--------|
|--0-----------------0-------------------0--------|


|------------------------------------------|
|-----10---10---8---------10---10---8------|
|-----x----x----x----9----x----x----x----9-|
|-----9----9----9----9----9----9----9----9-|
|-----7----7----7----7----7----7----7----7-|
|--0-----------------0-------------------0-|


|------------------------------------------|
|------10--------10--------10---10----10---|
|-8----8----8----8----8----8----8--8--8--8-|
|-x----x----x----x----x----x----x--x--x--x-|
|-9----9----9----9----9----9----9--9--9--9-|
|-7----7----7----7----7----7----7--7--7--7-|


|------------------------------------------|
|-8----8----8----8----8----8----8--8--8--8-|
|-8----8----8----8----8----8----8--8--8--8-|
|-8----8----8----8----8----8----8--8--8--8-|
|-6----6----6----6----6----6----6--6--6--6-|
|------------------------------------------|

Outro:
|-------------------|
|-8---8---8---8---8-|
|-x---x---x---x---x-|
|-9---9---9---9---9-|
|-7---7---7---7---7-|
|-------------------|