Queens Of The Stone Age - No One Knows Complete Chords & Tabs

 

No One Knows Complete Chords & Tabs

Queens Of The Stone Age Chords & Tabs

Version: 1 Type: Tab 1 rating
1 star 2 stars 3 stars 4 stars 5 stars
comments

No One Knows Complete Tab

   
Tablature for 's 






#----------------------------------PLEASE NOTE---------------------------------#
#This file is the author's own work and represents their interpretation of the #
#song. You may only use this file for private study, scholarship, or research. #
#------------------------------------------------------------------------------#

Gtr I (E A D G B E) - 'Untitled'

    Q=160
                                                       To Coda
    Gtr I
    Q  q  E. S q    q  E. S q  H      q  E. S q  q    E. S q  Q
||----------------|-----------------|---------------|-----------|
||o----6--6--4-4--|-6--6--4-4-------|-6--6--4-4--6--|-6--4-4----|
||-----3--3--3-5--|-3--3--3-5-------|-3--3--3-5--3--|-3--3-5----|
||-----5--5--5-5--|-5--5--5-5-------|-5--5--5-5--5--|-5--5-5----|
||o----3--3--3-3--|-3--3--3-3-------|-3--3--3-3--3--|-3--3-3----|
||----------------|-----------------|---------------|-----------|


    Q  q  Q  q    Q  q  Q  E. S   Q  q  Q  q    Q  q  Q E. S
||--------------|---------------|-------------|---------------||
||o----4-----4--|----4-----4--4-|----4-----4--|----4----4--4-o||
||-----5-----5--|----5-----5--5-|----5-----5--|----5----5--5--||
||-----5-----5--|----5-----5--5-|----5-----5--|----5----5--5--||
||o----3-----3--|----3-----3--3-|----3-----3--|----3----3--3-o||
||--------------|---------------|-------------|---------------||


                                                          D.C.
  q  q  q  q    q  q  E. S E. S   q  q  q  q    q  q  E. S E. S
|-------------|-----------------|-------------|------------------||
|-------------|-----------------|-4--4--4--4--|-4--4--4--4-4--4-o||
|-4--4--4--4--|-4--4--4--4-4--4-|-4--4--4--4--|-4--4--4--4-4--4--||
|-5--5--5--5--|-5--5--5--5-5--5-|-4--4--4--4--|-4--4--4--4-4--4--||
|-5--5--5--5--|-5--5--5--5-5--5-|-2--2--2--2--|-2--2--2--2-2--2-o||
|-3--3--3--3--|-3--3--3--3-3--3-|-------------|------------------||


    &
    Q  Q  Q  Q    Q  Q  Q  Q    E. S E. S E. S E. S   E. S E. S E. S E. S
||--------------|-------------|---------------------|-----------------------||
||o-------------|-------------|---------------------|----------------------o||
||--------------|-------------|---------------------|-----------------------||
||--------------|-3-----5--3--|-5--5-5--5-5--5-5--5-|-5--5-5--5-5--5-5--5---||
||o-3--5--6--5--|----6--------|-5--5-5--5-5--5-5--5-|-5--5-5--5-5--5-5--5--o||
||--------------|-------------|-3--3-3--3-3--3-3--3-|-3--3-3--3-3--3-3--3---||

[ Tab from: http://www.guitartabs.cc/tabs/q/queens_of_the_stone_age/no_one_knows_complete_tab.html ]
    Q  Q  Q  Q    Q  Q  Q  Q    E. S E. S E. S E. S   E. S E. S E. S E. S
||--------------|-------------|---------------------|-------------------------||
||o-------------|-------------|---------------------|------------------------o||
||--------------|-------------|---------------------|-------------------------||
||--------------|-------------|-5--5-5--5-5--5-5--5-|-5--5-5--5-5--5-5--5-----||
||o-6--5--3-----|-3--5--6--5--|-5--5-5--5-5--5-5--5-|-5--5-5--5-5--5-5--5----o||
||-----------6--|-------------|-3--3-3--3-3--3-3--3-|-3--3-3--3-3--3-3--3-----||


                                              |-3-| |-3-|   |-3-| |-3-|
  E. S E. S E. S E. S   E. S E. S E. S E. S   Q Q Q Q Q Q   Q Q Q Q Q Q
|---------------------|---------------------|-------------|----------------|
|---------------------|---------------------|-------------|----------------|
|-4--4-4--4-4--4-4--4-|-4--4-4--4-4--4-4--4-|-------------|----------------|
|-4--4-4--4-4--4-4--4-|-4--4-4--4-4--4-4--4-|-------------|----------------|
|-2--2-2--2-2--2-2--2-|-2--2-2--2-2--2-2--2-|-----2-------|-----2----------|
|---------------------|---------------------|-3-4---3-1-3-|-3-4---3-1-3----|


  |-3-| |-3-|   |-3-| |-3-|
  Q Q Q Q Q Q   Q Q Q Q Q Q   q
|-------------|-------------|------|
|-------------|-------------|-4----|
|-------------|-------------|-5----|
|-------------|-------------|-5----|
|-----2-------|-----2-------|-3----|
|-3-4---3-1-3-|-3-4---3-1-3-|------|




Duration Legend
---------------
W - whole; H - half; Q - quarter; E - 8th; S - 16th; T - 32nd; X - 64th; a - acciaccatura
+ - note tied to previous; . - note dotted; .. - note double dotted
Uncapitalized letters represent notes that are staccato (1/2 duration)
Irregular groupings are notated above the duration line
Duration letters will always appear directly above the note/fret number it represents the
duration for.  Duration letters with no fret number below them represent rests.  Multi-
bar rests are notated in the form Wxn, where n is the number of bars to rest for.  Low
melody durations appear below the staff

Tablature Legend
----------------
 h   - hammer-on
 p   - pull-off
 b   - bend
 pb  - pre-bend
 r   - bend release (if no number after the r, then release immediately)
 /\  - slide into or out of (from/to "nowhere")
 s   - legato slide
 S   - shift slide
<n> - natural harmonic
[n]  - artificial harmonic
n(n) - tapped harmonic
 ~   - vibrato
 tr  - trill
 T   - tap
 TP  - trem. picking
 PM  - palm muting
\n/  - tremolo bar dip; n = amount to dip
 \n  - tremolo bar down
 n/  - tremolo bar up
/n\  - tremolo bar inverted dip
 =   - hold bend; also acts as connecting device for hammers/pulls
 <> - volume swell (louder/softer)
 x   - on rhythm slash represents muted slash
 o   - on rhythm slash represents single note slash

Misc Legend
-----------
 |  - bar
||  - double bar
||o - repeat start
o|| - repeat end
*|  - double bar (ending)
 :  - bar (freetime)
 $  - Segno
 &  - Coda
Tempo markers - <E/E./Q/Q./H/H.> = BPM(8/16=s8/s16), where s8 = swing 8ths, s16 = swing 16ths

** Generated using Power Tab Editor by Brad Larsen:   The Official Power Tab Web Site


Comments