Queens Of The Stone Age - No One Knows Chords & Tabs

 

No One Knows Chords & Tabs

Queens Of The Stone Age Chords & Tabs

Version: 7 Type: Bass Tab 0 ratings
1 star 2 stars 3 stars 4 stars 5 stars
comments

No One Knows Bass Tab

   
This is from guitar world, so it's right

tuning, c,f,bflat,e flat

e--------------------------------------------------------------------
b--------------------------------------------------------------------
f 7-7-7-7-----7-7-7-------7-7-7-------7-7-7--------------------------
c -------12/-0-0-0-0-12/-0-0-0-0-12/-0-0-0-0-------------------------

]-------|-------------------------------------------------------------
]--5--5-|------------------------------------5------------------------
]5---5--|-7-7-7-------7-7-7-------7-7-7-----5---------6-6-6-6-6-5-6-6-
]---7---|0-0-0-0-5-3-0-0-0-0-5-3-0-0-0-0-5-7--7-7-7-7-----------------

]--------------------------------------------------------------------
]------------------------5-------------------------------------------
]-7-7-7-------7-7-7-----5--------------------------------------------
]0-0-0-0-12/-0-0-0-0-5-7---------------------------------------------

]-------------------------------------------------------------
]------------------------------------5------------------------
]-7-7-7-------7-7-7-------7-7-7-----5---------6-6-6-6-6-5-6-6-
]0-0-0-0-5-3-0-0-0-0-5-3-0-0-0-0-5-7--7-7-7-7-----------------

]---------------------------------------------------------------------
]------------9-7------------------------------------------------------
]-7-7-7-7-7-7---9-9-------6-5-6-6--7-7-7-------7-7-7-------7-7-7------
]0-0-0-0-0-0-------7-7-7-7--------0-0-0-0-12\-0-0-0-0-12\-0-0-0-0-12\-

]--------------------------------------9-9-7-7------------------------
]---------------------------------------------9-7-9-7-----------------
]-7-9-10-9-12-10-14-12--------------------------------10--------------
]----------------------7-7-7-7-7-7-7-7-------------------7-7-7-7------

]9-9-9-9-9-9-11-11-11-11-11-11-12-12-12-12-12-12-14-14-14-14-14-14----
]---------------------------------------------------------------------
]---------------------------------------------------------------------
]---------------------------------------------------------------------

]-------------------------------------------------------------
]------------------------------------5------------------------
]-7-7-7-------7-7-7-------7-7-7-----5---------6-6-6-6-6-5-6-6-
]0-0-0-0-5-3-0-0-0-0-5-3-0-0-0-0-5-7--7-7-7-7-----------------
[ Tab from: http://www.guitartabs.cc/tabs/q/queens_of_the_stone_age/no_one_knows_btab_ver_7.html ]
]--------------------------------------------------------------------
]------------------------5-------------------------------------------
]-7-7-7-------7-7-7-----5--------------------------------------------
]0-0-0-0-12/-0-0-0-0-5-7---------------------------------------------

]---------------------------------------------------------------------
]------------------------------------5--------------------------------
]-7-7-7-------7-7-7-------7-7-7-----5---------6-6-6-6-6-5-6-6--7-7-7--
]0-0-0-0-5-3-0-0-0-0-5-3-0-0-0-0-5-7--7-7-7-7-----------------0-0-0-0-

]-------------------------
]-------------------------
]-7-7-7-7-7-7-7-7---6-----
]----------------7-8--5-7-

GUITAR SOLO don't play

BASS SOLO lead into/actual solo
]-----------------------------------------------------------------12-14-14-14-14-
]12-14-14-14-14-14-14-14-14-12-14-14-14-14-14-14-14-12-14-14-14-14---------------
]--------------------------------------------------------------------------------
]--------------------------------------------------------------------------------

]--------12-14-14-------------------------------------------------------------------
]12-14-14--------12-14-14--------14-14-14-14-14-14-14-14-12-14-14-14-14-14-14-14-14-
]------------------------12-14-14---------------------------------------------------
]-----------------------------------------------------------------------------------

]--------14-16-16--------------------------------------------
]12-14-14--------12-14-14------------------------------------
]------------------------12-14-14-12-14-14-14-14-14-14-14-14-
]------------------------------------------------------------

]--------12-14-14---------------------------------------------------7-9-7--------
]12-14-14--------12-14-14--------------------5----------9-7---------------9-7----
]------------------------12-14-14-7-7-7-7---5--------------9-6-6-6-6-------------
]--------------------------------0-0-0-0-5-7--7-7-7-7-7--------------------------

]--------------------------------------------------------------------------------
]-----------------9-7------------------------------------------------------------
]--7-7-7-------7-7---9-7-------6-6-6-6-------------------------------------------
]-0-0-0-0-12\-0-0-------7-7-7-7--------------------------------------------------

]---------------
] 6-5-6-6-7-7-7-
]---------------
]---------------

If you have played this song till here, congrats, it's not hard, just long
Comments