Queens Of The Stone Age - Never Say Never Chords & Tabs

 

Never Say Never Chords & Tabs

Queens Of The Stone Age Chords & Tabs

Version: 1 Type: Bass Tab 0 ratings
1 star 2 stars 3 stars 4 stars 5 stars
comments

Never Say Never Bass Tab

   
Band- Queens Of The Stone Age
Song- Never Say Never

(0:15)

					X2
G|---------|---------------------------------------------------------|
D|---------|---------------------------------------------------------|
A|---------|---------------------------------------------------------|
E|-7--7--7-|-0--5-6-5-3-3---0---6-5--0-3-5-0---6-5--0-3-5-7--7--7--7-|

G|---------------------------------------------------------|
D|---------------------------------------------------------|
A|---------------------------------------------------------|
E|-0---6-5--0-3-5-0---6-5--3-3---0---6-5--0-3-5-7--7--7--7-|

G|---------------------------------------------------------|
D|---------------------------------------------------------|
A|---------------------------------------------------------|
E|-0---6-5--0-3-5-0---6-5--0-3-5-0---6-5--0-3-5-7--7--7--7-|

G|---------------------------------------------------------|
D|---------------------------------------------------------|
A|---------------------------------------------------------|
E|-0---6-5--3-3---0---6-5--0-3-5-0---6-5--0-3-5-7--7--7--7-|

G|------------------------------------------------------------|
D|------------------------------------------------------------|
A|------------------------------------------------------------|
E|-0---6-5--0-3-5-0---6-5--3-3---0---6-5--0-3-5-0--3-5-0--3-5-|

G|--------------------------------------------------------|
D|--------------------------------------------------------|
A|--------------------------------------------------------|
E|-0---6-5--3-3---0-6-6-5--0-3-5-0--3-5-0--3-5-7--7--7--7-|

G|------------------------------------------------------------|
D|------------------------------------------------------------|
A|------------------------------------------------------------|
E|-0---6-5--3-3---0---6-5--0-3-5-0---6-5--0-3-5-0--3-5-0--3-5-|

G|----------------------------------------------------------------------------------------|
D|----------------------------------------------------------------------------------------|
A|----------------------------------------------------------------------------------------|
E|-0---6-5-3-0-3-5-0--3-5-0--3-5-0---6-5-3-0-3-5-0--3-5-0--3-5-0---6-5-3-0-3-5-7--7--7--7-|

G|--------------------------------------------------------------|
D|--------------------------------------------------------------|
A|--------------------------------------------------------------|
E|-0---6-5--0-3-5-0---6-5--0-3-5-0-0-3-5-0--3-5-0--3-5-0--3-5-0-|

G|--------------------------------------------------------------------------------------------------|
D|--------------------------------------------------------------------------------------------------|
A|--------------------------------------------------------------------------------------------------|
E|-0---6-5--0-3-5-0---6-5--0-3-5-0---7--7--77-0---6-5--0-3-5-0--3-5-0--3-5-0--3-5-0--3-5-7--7--7--7-|

G|--------------------------------------------------------------|
D|--------------------------------------------------------------|
A|--------------------------------------------------------------|
E|-0---6-5--3-3---0---6-5--0-3-5-0---6-5--0-3-5-0-0-3-5-0-0-3-5-|

G|----------------------------------------------------------|
D|----------------------------------------------------------|
A|----------------------------------------------------------|
E|-0---6-5--3-3---0-0-3-5-0-0-3-5-0---6-5--0-3-5-7--7--7--7-|

G|--------------------------------------------------------|
D|--------------------------------------------------------|
A|--------------------------------------------------------|
E|-0---6-5--3-3---0-6-6-5--0-3-5-0--3-5-0--3-5-7--7--7--7-|

G|---------------------------------------------------------|
D|---------------------------------------------------------|
A|---------------------------------------------------------|
E|-0---6-5--3-3---0---6-5--0-3-5-0---6-5--0-3-5-7--7--7--7-|

G|---------------------------------------------------------|
D|---------------------------------------------------------|
A|---------------------------------------------------------|
E|-0---6-5--3-3---0---6-5--3-3---0---6-5--0-3-5-7--7--7--7-|
[ Tab from: http://www.guitartabs.cc/tabs/q/queens_of_the_stone_age/never_say_never_btab.html ]
G|----------------------------------------------------------|
D|----------------------------------------------------------|
A|----------------------------------------------------------|
E|-0---6-5--0-3-5-0---6-5--0-3-5-0-0-3-5-0--3-5-0--6-5--3-3-|

G|---------------------------------------------------------|
D|---------------------------------------------------------|
A|---------------------------------------------------------|
E|-0---6-5--0-3-5-0---6-5--0-3-5-0---6-5--0-3-5-7--7--7--7-|

G|----------------------------------------------------------|
D|----------------------------------------------------------|
A|----------------------------------------------------------|
E|-0---6-5--0-3-5-0-0-3-5-0-0-3-5-0-0-6-5--0-3-5-7--7--7--7-|

G|-------------------------------------------------------------------------------------------------|
D|-------------------------------------------------------------------------------------------------|
A|-------------------------------------------------------------------------------------------------|
E|-0---6-5--0-3-5-0--3-5-0--3-5-0---7--7--77-0---6-5--0-3-5-0--3-5-0--3-5-0--3-5-0--3-5-7--7--7--7-|

			X2
G|------------------------------------------------|
D|----9-----9-----7-----7-----5-----5-----4-----4-|
A|------------------------------------------------|
E|-7-----7-----5-----5-----3-----3-----2-----2----|

G|------------------------------------------------|
D|----2-----2-----2-----2-----4-----4-----4-----4-|
A|------------------------------------------------|
E|-0-----0-----0-----0-----2-----2-----2-----2----|

G|-----------------------------------------9999---|
D|----5-----5-----5-----5-----7-----7----7--------|
A|------------------------------------------------|
E|-3-----3-----3-----3-----5-----5-----5----------|

G|---------------------------------------------------------|
D|---------------------------------------------------------|
A|---------------------------------------------------------|
E|-0---6-5--3-3---0---6-5--3-3---0---6-5--0-3-5-7--7--7--7-|

G|-----------------------------------------------------------|
D|-----------------------------------------------------------|
A|-----------------------------------------------------------|
E|-0---6-5--0-3-5-0-0-3-5-0-0-3-5-0-0-3-5-0-0-3-5-7--7--7--7-|

G|------------------------------------------------------------|
D|------------------------------------------------------------|
A|------------------------------------------------------------|
E|-0---6-5--0-3-5-0---6-5--0-3-5-0---6-5--0-3-5-0--3-5-0--3-5-|

G|---------------------------------------------------------|
D|---------------------------------------------------------|
A|---------------------------------------------------------|
E|-0---6-5--3-3---0---6-5--0-3-5-0---6-5--0-3-5-7--7--7--7-|

G|---------------------------------------------------------|
D|---------------------------------------------------------|
A|---------------------------------------------------------|
E|-0---6-5--0-3-5-0---6-5--0-3-5-0---6-5--0-3-5-7--7--7--7-|

G|--------------------------------------------------------------------------------------------------|
D|--------------------------------------------------------------------------------------------------|
A|--------------------------------------------------------------------------------------------------|
E|-0---6-5--0-3-5-0---6-5--0-3-5-0---7--7--77-0---6-5--0-3-5-0--3-5-0--3-5-0--3-5-0--3-5-7--7--7--7-|

G|-------------------------------------------------------------------------------------------------|
D|-------------------------------------------------------------------------------------------------|
A|-------------------------------------------------------------------------------------------------|
E|-0---6-5--0-3-5-0--3-5-0--3-5-0---7--7--77-0---6-5--0-3-5-0--3-5-0--3-5-0--3-5-0--3-5-7--7--7--7-|

                X7
G|----------------|------------|
D|----------------|------------|
A|----------------|------------|
E|-0---6-5--0-3-5-|-7--7--7--7-|

this last part is all in harmonic notes...

G|--------------------------------------------------|
D|--------------------------------------------------|
A|-7-7-7-7-7-7-7-7-7-7-7-7-7-7-7-7-7-7-7-7-7-.......|
E|--------------------------------------------------|
Comments