Queens Of The Stone Age - Medication Chords & Tabs

 

Medication Chords & Tabs

Queens Of The Stone Age Chords & Tabs

Version: 3 Type: Tab 0 ratings
1 star 2 stars 3 stars 4 stars 5 stars
comments

Medication Tab

   
MEDICATION from LULLABIES TO PARALYZE  tabbed by Jori Apedaile


NOTE: To get a tone that sounds like Queens of the Stone Age, I would recommend using 
pickup closest to the neck, turning your tone knob down all the way, and having a 
amplifier.

Intro
e-6___________________-
B----------------------|
G----------------------|  hold for 16 beats while the bass does its little
D----------------------|  part.
A----------------------|
E----------------------|

-------------------|
-------------------|
-------------------|
-------------------|  immediately to verse
-6-8-6-8-6-8-6-8-6-|
-4-6-4-6-4-6-4-6-4-|

Verse
-----------------------------------------------------------------|
-----------------------------------------------------------------|
-----------------------------------------------------------------|
-----------------------------------------------------------------|
-8-8-8-8-8-8-8-8-8-8-8-8-8-8-8-8-8-8-8-8-8-8-8-8-8-8-8-8-8-8-8-8-|
-6-6-6-6-6-6-6-6-6-6-6-6-6-6-6-6-6-6-6-6-6-6-6-6-6-6-6-6-6-6-6-6-|

-----------------------------------------|
-----------------------------------------|
-----------------------------------------|
-------6-6---------9---------------------| Immediately to Verse 2
-4-4---4-4---6-6---7---6-8-6-8-6-8-6-8-6-|
-2-2---------4-4---7---4-6-4-6-4-6-4-6-4-|
[ Tab from: http://www.guitartabs.cc/tabs/q/queens_of_the_stone_age/medication_tab_ver_3.html ]
---------------------------------------------------------------|
---------------------------------------------------------------|
---------------------------------------------------------------|
---------------------------------------------------------------|
-8-8-8-8-8-8-8-8-8-8-8-8-8-8-8-8-8-8-8-8-8-8-8-8-8-8-8-8-8-8-8-|
-6-6-6-6-6-6-6-6-6-6-6-6-6-6-6-6-6-6-6-6-6-6-6-6-6-6-6-6-6-6-6-|

-----------------------------------------|
-----------------------------------------|
-----------------------------------------|
-------6-6---------9---------------------| Immediately to Verse 3
-4-4---4-4---6-6---7---6-8-6-8-6-8-6-8-6-|
-2-2---------4-4---7---4-6-4-6-4-6-4-6-4-|

-------------P-------------P-------------------------------P-|
-------------A-------------A-------------------------------A-|
-------------U-------------U-------------------------------U-|
-------------S-------------S-------------------------------S-|
-8-8-8-8-8-8-e-8-8-8-8-8-8-e-8-8-8-8-8-8-8-8-8-8-8-8-8-8-8-e-|
-6-6-6-6-6-6---6-6-6-6-6-6---6-6-6-6-6-6-6-6-6-6-6-6-6-6-6---|

-----------------------------------------------------------------|
-----------------------------------------------------------------|
-----------------------------------------------------------------|
-----------------------------------------------------------------|
-8-8-8-8-8-8-8-8-8-8-8-8-8-8-8-8-8-8-8-8-8-8-8-8-8-8-8-8-8-8-8-8-|
-6-6-6-6-6-6-6-6-6-6-6-6-6-6-6-6-6-6-6-6-6-6-6-6-6-6-6-6-6-6-6-6-|

-----------------------------------------|
-----------------------------------------|
-----------------------------------------|
-------6-6---------9---------------------| Immediately repeat verse 2
-4-4---4-4---6-6---7---6-8-6-8-6-8-6-8-6-|
-2-2---------4-4---7---4-6-4-6-4-6-4-6-4-|

That's It! A very easy song that is fun to play and sing along with.

Any questions? Email me @ apedailejw@gaggle.net
Comments