Queens Of The Stone Age - Long Slow Goodbye Chords & Tabs

 

Long Slow Goodbye Chords & Tabs

Queens Of The Stone Age Chords & Tabs

Version: 1 Type: Bass Tab 0 ratings
1 star 2 stars 3 stars 4 stars 5 stars
comments

Long Slow Goodbye Bass Tab

Band- Queens Of The Stone Age
Song- Long Slow Goodbye

Main Riff
G------------------------------------------------|
D------------------------------------------------|
A------------------------------------------------|
E-0-0-0-0-0-0-0-0-0-0-0-0-0-5h6p5-3--------------|


Pre Chorus
G----------------------------------------------------------------------------|
D----------------------------------------------------------------------------|
A-7-7-7-7-7-7-7-7-5-5-5-5-5-5-5-5--------------------------------------------|
E---------------------------------0-0-0-0-0-0-0-0-0-0-0-0--------------------|

Pre Chorus variations
G----------------------------------------------------------------------------|
D----------------------------------------------------------------------------|
A-7-7-7-7-7-7-7-7-----2h4-5-5-5-5-5-5-5--------------------------------------|
E-----------------2h4-------------------0-0-0-0-0-0-0-0-0-0-0-0--------------|

G----------------------------------------------------------------------------|
D----------------------------------------------------------------------------|
A-7-7-7-7-7-7-7-7-0/5-5-5-5-5-5-5-5------------------------------------------|
E-----------------------------------0-0-0-0-0-0-0-0-0-0-0-0------------------|

G----------------------------------------------------------------------------|
D----------------------------------------------------------------------------|
A-7-7-7-7-7-7-7-7-4h5-5-5-5-5-5-5-5------------------------------------------|
E-----------------------------------0-0-0-0-0-0-0-0-0-0-0-0------------------|
[ Tab from: http://www.guitartabs.cc/tabs/q/queens_of_the_stone_age/long_slow_goodbye_btab.html ]
Chorus
G---------------------------------------------------------------------------------------------|
D---------------------------------------------------------------------------------------------|
A---------------------------------------------------------------------------------------------|
E-8-8-8-8-8-8-8-8-10-10-10-10-10-10-10-0-0-0-0-0-0-0-0-0-0-0-0-0-0-0--------------------------|

Chorus Variations
G---------------------------------------------------------------------------------------------|
D---------------------------------------------------------------------------------------------|
A---------------------------------------------------------------------------------------------|
E-/8-8-8-8-8-8-8-8-1/10-10-10-10-10-10-10\-0-0-0-0-0-0-0-0-0-0-0-0-0-0-0----------------------|

G---------------------------------------------------------------------------------------------|
D---------------------------------------------------------------------------------------------|
A---------------------------------------------------------------------------------------------|
E-8-8-8-8-8-8-8-8-3h5-8h10-10-10-10-10-10-10-0-0-0-0-0-0-0-0-0-0-0-0-0-0-0--------------------|

Little riff in the middle
G-----------------------------------------------------|
D-----------------------------------------------------|
A---0-2/-5h7p5\-2-0-----------------------------------|
E-0---------------------------------------------------|

Little riff variation
G-----------------------------------------------------|
D-----------------------------------------------------|
A---0-2/-5h7p5-9h10h9---------------------------------|
E-0---------------------------------------------------|

Order:
Guitar intro
Main riff x 6
Pre CHorus x 2
Chorus x 2
Main riff x 5
Pre chorus x 2
Chorus x 4
Little Riff x 8
Main riff x 6
Chorus x 4
Little Riff x 2
Pause
Little Riff x 2
Pause
Little Riff x 2
Comments