Queens Of The Stone Age - Little Sister Chords & Tabs

 

Little Sister Chords & Tabs

Queens Of The Stone Age Chords & Tabs

Version: 6 Type: Tab 0 ratings
1 star 2 stars 3 stars 4 stars 5 stars
comments

Little Sister Tab

Queens of the Stone Age
Little Sister
Lullabies To Paralyze (2005)
Tabbed by DRybes
Email: drybes@gmail.com

Tuning:   Down 1 and a half steps  == Db Gb B E Ab Db ==              Time:   4/4

This is all my own work. Distribute as you wish but keep my name on here.

There are two guitars at work here creating the harmony you hear. Solo tab included.

Yes it's in Db tuning, not C like the 3 QOTSA albums before it.


Intro
----------------------------------

Guitar 1:

Db ----|-------------------------|--------------------|
Ab ----|-------------------------|--------------------|
E  ----|-9--9-----------------12-|-12-12--------------|
B  ----|-9--9-----9--9--9-----12-|-12-12----9--9--9---|
Gb ----|-7--7-----9--9--9-----10-|-10-10----9--9--9---|
Db ----|----------7--7--7--------|----------7--7--7---|

Db ----|-------------------------|--------------------|
Ab ----|-------------------------|--------------------|
E  -9--|-9--9-----------------12-|-12-12--------------|
B  -9--|-9--9-----9--9--9-----12-|-12-12----9--9--9---|   x3
Gb -7--|-7--7-----9--9--9-----10-|-10-10----9--9--9---|
Db ----|----------7--7--7--------|----------7--7--7---|

Guitar 2:

Db ----|-------------------------|--------------------|
Ab ----|-------------------------|--------------------|
E  ----|-9--9-----11-11-11----12-|-12-12----16-16-16--|
B  ----|-9--9-----11-11-11----12-|-12-12----16-16-16--|
Gb ----|-7--7-----9--9--9-----10-|-10-10----14-14-14--|
Db ----|-------------------------|--------------------|

Db ----|-------------------------|--------------------|
Ab ----|-------------------------|--------------------|
E  -9--|-9--9-----11-11-11----12-|-12-12----16-16-16--|
B  -9--|-9--9-----11-11-11----12-|-12-12----16-16-16--|   x3
Gb -7--|-7--7-----9--9--9-----10-|-10-10----14-14-14--|
Db ----|-------------------------|--------------------|

Verse 1
----------------------------------

Guitar 1:

Db -*--|-------------------------|--------------------        --|
Ab ----|-------------------------|--------------------          |
E  -9--|-9--9-----------------12-|-12-12--------------          |
B  -9--|-9--9-----9--9--9-----12-|-12-12----9--9--9---   x3     |
Gb -7--|-7--7-----9--9--9-----10-|-10-10----9--9--9---          |
Db ----|----------7--7--7--------|----------7--7--7---          |
                                                                |--  x2
Db ----|-------------------------|-------------------------|    |
Ab ----|-------------------------|-------------------------|    |
E  ----|-------------------------|-------------------------|    |
B  -7--|-7--7-----7--7--7-----5--|-5--5-----5--5--5--4-----|    |
Gb -7--|-7--7-----7--7--7-----5--|-5--5-----5--5--5--4-----|    |
Db -5--|-5--5-----5--5--5-----3--|-3--3-----3--3--3--2--0--|  --|

Guitar 2:

Db -*--|-------------------------|--------------------        --|
Ab ----|-------------------------|--------------------          |
E  -9--|-9--9-----------------12-|-12-12----16-16-16--          |
B  -9--|-9--9-----9--9--9-----12-|-12-12----16-16-16--   x3     |
Gb -7--|-7--7-----9--9--9-----10-|-10-10----14-14-14--          |
Db ----|----------7--7--7--------|--------------------          |
                                                                |--  x2
Db ----|-------------------------|-------------------------|    |
Ab ----|-------------------------|-------------------------|    |
E  -14-|-14-14----14-14-14----12-|-12-12----12-12-12-11-9--|    |
B  -14-|-14-14----14-14-14----12-|-12-12----12-12-12-11-9--|    |
Gb -12-|-12-12----12-12-12----10-|-10-10----10-10-10-9--7--|    |
Db ----|-------------------------|-------------------------|  --|

Chorus 1
----------------------------------

Guitar 1:

Db |-------------------------|-------------------------|  --|
Ab |-------------------------|-------------------------|    |
E  |-------------------------|-------------------------|    |
B  |-7--7--7--7--7--7--7--7--|-5--5--5--5--5--5--5--5--|    |
Gb |-7--5--7--5--7--5--7--5--|-5--3--5--3--5--3--5--3--|    |
Db |-5--5--5--5--5--5--5--5--|-3--3--3--3--3--3--3--3--|    |
                                                            |--  x3
Db |-------------------------|-------------------------|    |
Ab |-------------------------|-------------------------|    |
E  |-------------------------|-------------------------|    |
B  |-9--9--9--9--9--9--9--9--|-7--7--7--7--7--7--7--7--|    |
Gb |-9--7--9--7--9--7--9--7--|-7--5--7--5--7--5--7--5--|    |
Db |-7--7--7--7--7--7--7--7--|-5--5--5--5--5--5--5--5--|  --|

Db |-------------------------|-------------------------|
Ab |-------------------------|-------------------------|
E  |-------------------------|-------------------------|
B  |-7--7--7--7--7--7--7--7--|-5--5--5--5--5--5--5--5--|
Gb |-7--5--7--5--7--5--7--5--|-5--3--5--3--5--3--5--3--|
Db |-5--5--5--5--5--5--5--5--|-3--3--3--3--3--3--3--3--|

Db |-------------------------|------------------------|
Ab |-------------------------|------------------------|
E  |-------------------------|------------------------|
B  |-9--9--9--9--9--9--9--9--|-9--9--9--9--9--9--9----|
Gb |-9--7--9--7--9--7--9--7--|-9--7--9--7--9--7--9----|
Db |-7--7--7--7--7--7--7--7--|-7--7--7--7--7--7--7----|

Guitar 2:

Db |-------------------------|-------------------------|  --|
Ab |-------------------------|-------------------------|    |
E  |-14-14-14-14-14-14-14-14-|-12-12-12-12-12-12-12-12-|    |
B  |-14-12-14-12-14-12-14-12-|-12-10-12-10-12-10-12-10-|    |
Gb |-12-12-12-12-12-12-12-12-|-10-10-10-10-10-10-10-10-|    |
Db |-------------------------|-------------------------|    |
                                                            |--  x3
Db |-------------------------|-------------------------|    |
Ab |-------------------------|-------------------------|    |
E  |-16-16-16-16-16-16-16-16-|-14-14-14-14-14-14-14-14-|    |
B  |-16-14-16-14-16-14-16-14-|-14-12-14-12-14-12-14-12-|    |
Gb |-14-14-14-14-14-14-14-14-|-12-12-12-12-12-12-12-12-|    |
Db |-------------------------|-------------------------|  --|

Db |-------------------------|-------------------------|
Ab |-------------------------|-------------------------|
E  |-14-14-14-14-14-14-14-14-|-12-12-12-12-12-12-12-12-|
B  |-14-12-14-12-14-12-14-12-|-12-10-12-10-12-10-12-10-|
Gb |-12-12-12-12-12-12-12-12-|-10-10-10-10-10-10-10-10-|
Db |-------------------------|-------------------------|

Db |-------------------------|-----------------------|
Ab |-------------------------|-----------------------|
E  |-16-16-16-16-16-16-16-16-|-16-16-16-16-16-16-16--|
B  |-16-14-16-14-16-14-16-14-|-16-14-16-14-16-14-16--|
Gb |-14-14-14-14-14-14-14-14-|-14-14-14-14-14-14-14--|
Db |-------------------------|-----------------------|

Interlude
----------------------------------

Guitar 1:

Db ----|-------------------------|-------------------|
Ab --15h17p15--------------------|-------------------|
E  ----|----------14h16p14-----14h16p14--------------|
B  ----|-------------------------|----------14h16p14-|   x2
Gb ----|-------------------------|-------------------|
Db ----|-------------------------|-------------------|

Db ----|-------------------------|-----------------------|
Ab ----|-------------------------|-----------------------|
E  ----|-9--9--9-----------------|-12-12-12--------------|
B  ----|-9--9--9-----9--9--9-----|-12-12-12----9--9--9---|
Gb ----|-7--7--7-----9--9--9-----|-10-10-10----9--9--9---|
Db ----|-------------7--7--7-----|-------------7--7--7---|
[ Tab from: http://www.guitartabs.cc/tabs/q/queens_of_the_stone_age/little_sister_tab_ver_6.html ]
Db ----|-------------------------|-------------------|
Ab --15h17p15--------------------|-------------------|
E  ----|----------14h16p14-----14h16p14--------------|
B  ----|-------------------------|----------14h16p14-|
Gb ----|-------------------------|-------------------|
Db ----|-------------------------|-------------------|

Guitar 2:

Db ----|-------------------------|--------------------|
Ab ----|-------------------------|--------------------|
E  -9--|-9--9-----11-11-11----12-|-12-12----16-16-16--|
B  -9--|-9--9-----11-11-11----12-|-12-12----16-16-16--|   x2
Gb -7--|-7--7-----9--9--9-----10-|-10-10----14-14-14--|
Db ----|-------------------------|--------------------|

Db ----|-------------------------|-----------------------|
Ab ----|-------------------------|-----------------------|
E  ----|-9--9--9-----11-11-11----|-12-12-12----16-16-16--|
B  ----|-9--9--9-----11-11-11----|-12-12-12----16-16-16--|
Gb ----|-7--7--7-----9--9--9-----|-10-10-10----14-14-14--|
Db ----|-------------------------|-----------------------|

Db ----|-------------------------|--------------------|
Ab ----|-------------------------|--------------------|
E  ----|-9--9-----11-11-11----12-|-12-12----16-16-16--|
B  ----|-9--9-----11-11-11----12-|-12-12----16-16-16--|
Gb ----|-7--7-----9--9--9-----10-|-10-10----14-14-14--|
Db ----|-------------------------|--------------------|

Verse 2
----------------------------------

Same as Verse 1 but without the first chord (*).

Chorus 2
----------------------------------

Same as Chorus 1.

Solo
----------------------------------

Guitar 1:

Db |-----------------------------|-----------------------------|
Ab |15h17p15---------------------|-----------------------------|
E  |-------------14h16p14--------|14h16p14---------------------|
B  |-----------------------------|-------------14h16p14--------|  x2
Gb |-----------------------------|-----------------------------|
Db |-----------------------------|-----------------------------|

Db |-----------------------------|-----------------------------|
Ab |15h17p15-----17h19p17--------|17h19h20-----19p17p16--------|
E  |-----------------------------|-----------------------------|
B  |-----------------------------|-----------------------------|  x2
Gb |-----------------------------|-----------------------------|
Db |-----------------------------|-----------------------------|

Db |-----------------------------|-------------18b19--------19-|
Ab |-17-17-17----19-19-19--------|20-20-20---------------------|
E  |-----------------------------|-----------------------------|
B  |-----------------------------|-----------------------------|
Gb |-----------------------------|-----------------------------|
Db |-----------------------------|-----------------------------|

Db |-19--19----17b--17--17----15h17p15-------------------------|
Ab |-----------------------------|-------19p17p16--------------|
E  |-----------------------------|-----------------------------|
B  |-----------------------------|-----------------------------|
Gb |-----------------------------|-----------------------------|
Db |-----------------------------|---------------------------0-|

Db |-----------------------------|-----------------------------|
Ab |-15--17--------------------15h17---------------------------|
E  |---------16------------------|---16-14-16----14-16---------|
B  |-----------------------------|--------------------------16-|
Gb |-----------------------------|---------------------14s17---|
Db |-----------------------------|-----------------------------|

Db |-----------------------------|-----------------------------|
Ab |-----------------------------|-----------------------------|
E  |-14h16-----------------------|-------------14h16-----------|
B  |-------16s14-----------------|------------------16p14p12h16|
Gb |-------------14-----12h14-14-|-12h14p12h14-----------------|
Db |-----------------------------|-----------------------------|

Db |-----------------------------|-----------------------------|
Ab |-----------------------------|-----------------------------|
E  |-----------------------------|-----------------------------|
B  |---14-------16-14--16-14-----|-14---16---14---13-----------|
Gb |-----------------------------|-----------------------------|
Db |-----------------------------|-----------------------------|

Db |-----------------------------|------12-12------------------|
Ab |----------------12-----------|---12---------15h17-----16---|
E  |-----------12----------------|12------------------16-------|
B  |-12--h14----------------12h14|-----------------------------|
Gb |-----------------------------|-----------------------------|
Db |-----------------------------|-----------------------------|

Db |-----------------------------|--------s19------------------|
Ab |-15--17--15--17s19--17---15--|-17------------16------------|
E  |-----------------------------|-----16----------------------|
B  |-----------------------------|-----------------------------|
Gb |-----------------------------|-----------------------------|
Db |-----------------------------|-----------------------------|

Db |-----------------------------|--------17--17--17-----------|
Ab |-15--17--15h17s19---17h19h20-|--19h20----------------------|
E  |-----------------------------|-----------------------------|
B  |-----------------------------|-----------------------------|
Gb |-----------------------------|-----------------------------|
Db |-----------------------------|-----------------------------|

Db |-17h19-19-19---17h19-19-19---|-15h17-17-17---14------------|
Ab |-----------------------------|-----------------------------|
E  |-----------------------------|-----------------------------|
B  |-----------------------------|-----------------------------|
Gb |-----------------------------|-----------------------------|
Db |-----------------------------|-----------------------------|

Db |-----19----19-----19----19---|-----22----(22)---19----(19)-|
Ab |--17----17-----19----19------|--20----20-----16----16------|
E  |-----------------------------|-----------------------------|
B  |-----------------------------|-----------------------------|  x4
Gb |-----------------------------|-----------------------------|
Db |-----------------------------|-----------------------------|

Guitar 2:

Db |-------------------------|-------------------------|
Ab |-------------------------|-------------------------|
E  |-------------------------|-------------------------|
B  |-------------------------|-------------------------|  x4
Gb |-------------------------|-------------------------|
Db |-------------------------|-------------------------|

Db ----|-------------------------|-----------------------|
Ab ----|-------------------------|-----------------------|
E  ----|-9--9--9-----------------|-12-12-12--------------|
B  ----|-9--9--9-----9--9--9-----|-12-12-12----9--9--9---|
Gb ----|-7--7--7-----9--9--9-----|-10-10-10----9--9--9---|
Db ----|-------------7--7--7-----|-------------7--7--7---|

Db ----|-------------------------|--------------------|
Ab ----|-------------------------|--------------------|
E  -9--|-9--9-----11-11-11----12-|-12-12----16-16-16--|
B  -9--|-9--9-----11-11-11----12-|-12-12----16-16-16--|   x11
Gb -7--|-7--7-----9--9--9-----10-|-10-10----14-14-14--|
Db ----|-------------------------|--------------------|


Both Guitars end on:

Db |-------------------------|
Ab |-------------------------|
E  |-------------------------|
B  |-------------------------|
Gb |-------------------------|
Db |-0-----------------------|


-DRybes
Comments